  0
SECTION
  2
HEADER
  9
$ACADVER
  1
AC1015
  9
$ACADMAINTVER
 70
    20
  9
$DWGCODEPAGE
  3
ANSI_1252
  9
$INSBASE
 10
0.0
 20
0.0
 30
0.0
  9
$EXTMIN
 10
1.000000000000000E+20
 20
1.000000000000000E+20
 30
1.000000000000000E+20
  9
$EXTMAX
 10
-1.000000000000000E+20
 20
-1.000000000000000E+20
 30
-1.000000000000000E+20
  9
$LIMMIN
 10
0.0
 20
0.0
  9
$LIMMAX
 10
12.0
 20
9.0
  9
$ORTHOMODE
 70
     0
  9
$REGENMODE
 70
     1
  9
$FILLMODE
 70
     1
  9
$QTEXTMODE
 70
     0
  9
$MIRRTEXT
 70
     1
  9
$LTSCALE
 40
1.0
  9
$ATTMODE
 70
     1
  9
$TEXTSIZE
 40
0.2
  9
$TRACEWID
 40
0.05
  9
$TEXTSTYLE
  7
STANDARD
  9
$CLAYER
  8
0
  9
$CELTYPE
  6
BYLAYER
  9
$CECOLOR
 62
   256
  9
$CELTSCALE
 40
1.0
  9
$DISPSILH
 70
     0
  9
$DIMSCALE
 40
0.0
  9
$DIMASZ
 40
0.15
  9
$DIMEXO
 40
0.063
  9
$DIMDLI
 40
0.38
  9
$DIMRND
 40
0.0
  9
$DIMDLE
 40
0.0
  9
$DIMEXE
 40
0.063
  9
$DIMTP
 40
0.0
  9
$DIMTM
 40
0.0
  9
$DIMTXT
 40
0.125
  9
$DIMCEN
 40
0.09
  9
$DIMTSZ
 40
0.0
  9
$DIMTOL
 70
     0
  9
$DIMLIM
 70
     0
  9
$DIMTIH
 70
     1
  9
$DIMTOH
 70
     1
  9
$DIMSE1
 70
     0
  9
$DIMSE2
 70
     0
  9
$DIMTAD
 70
     0
  9
$DIMZIN
 70
     0
  9
$DIMBLK
  1

  9
$DIMASO
 70
     1
  9
$DIMSHO
 70
     1
  9
$DIMPOST
  1

  9
$DIMAPOST
  1

  9
$DIMALT
 70
     0
  9
$DIMALTD
 70
     2
  9
$DIMALTF
 40
25.4
  9
$DIMLFAC
 40
1.0
  9
$DIMTOFL
 70
     0
  9
$DIMTVP
 40
0.0
  9
$DIMTIX
 70
     0
  9
$DIMSOXD
 70
     0
  9
$DIMSAH
 70
     0
  9
$DIMBLK1
  1

  9
$DIMBLK2
  1

  9
$DIMSTYLE
  2
STANDARD
  9
$DIMCLRD
 70
     0
  9
$DIMCLRE
 70
     0
  9
$DIMCLRT
 70
     0
  9
$DIMTFAC
 40
0.8
  9
$DIMGAP
 40
0.09
  9
$DIMJUST
 70
     0
  9
$DIMSD1
 70
     0
  9
$DIMSD2
 70
     0
  9
$DIMTOLJ
 70
     1
  9
$DIMTZIN
 70
     0
  9
$DIMALTZ
 70
     0
  9
$DIMALTTZ
 70
     0
  9
$DIMUPT
 70
     0
  9
$DIMDEC
 70
     3
  9
$DIMTDEC
 70
     3
  9
$DIMALTU
 70
     2
  9
$DIMALTTD
 70
     2
  9
$DIMTXSTY
  7
STANDARD
  9
$DIMAUNIT
 70
     0
  9
$DIMADEC
 70
     0
  9
$DIMALTRND
 40
0.0
  9
$DIMAZIN
 70
     0
  9
$DIMDSEP
 70
    46
  9
$DIMATFIT
 70
     3
  9
$DIMFRAC
 70
     0
  9
$DIMLDRBLK
  1

  9
$DIMLUNIT
 70
     2
  9
$DIMLWD
 70
    -2
  9
$DIMLWE
 70
    -2
  9
$DIMTMOVE
 70
     2
  9
$LUNITS
 70
     2
  9
$LUPREC
 70
     3
  9
$SKETCHINC
 40
0.1
  9
$FILLETRAD
 40
0.0
  9
$AUNITS
 70
     0
  9
$AUPREC
 70
     1
  9
$MENU
  1
adv-in
  9
$ELEVATION
 40
0.0
  9
$PELEVATION
 40
0.0
  9
$THICKNESS
 40
0.0
  9
$LIMCHECK
 70
     0
  9
$CHAMFERA
 40
0.0
  9
$CHAMFERB
 40
0.0
  9
$CHAMFERC
 40
0.0
  9
$CHAMFERD
 40
0.0
  9
$SKPOLY
 70
     0
  9
$TDCREATE
 40
2450247.666150231
  9
$TDUCREATE
 40
2450247.874483565
  9
$TDUPDATE
 40
2455117.497069063
  9
$TDUUPDATE
 40
2455117.705402396
  9
$TDINDWG
 40
0.0175091088
  9
$TDUSRTIMER
 40
0.0175089236
  9
$USRTIMER
 70
     1
  9
$ANGBASE
 50
0.0
  9
$ANGDIR
 70
     0
  9
$PDMODE
 70
     0
  9
$PDSIZE
 40
0.0
  9
$PLINEWID
 40
0.0
  9
$SPLFRAME
 70
     0
  9
$SPLINETYPE
 70
     6
  9
$SPLINESEGS
 70
     8
  9
$HANDSEED
  5
9B6
  9
$SURFTAB1
 70
     6
  9
$SURFTAB2
 70
     6
  9
$SURFTYPE
 70
     6
  9
$SURFU
 70
     6
  9
$SURFV
 70
     6
  9
$UCSBASE
  2

  9
$UCSNAME
  2

  9
$UCSORG
 10
0.0
 20
0.0
 30
0.0
  9
$UCSXDIR
 10
1.0
 20
0.0
 30
0.0
  9
$UCSYDIR
 10
0.0
 20
1.0
 30
0.0
  9
$UCSORTHOREF
  2

  9
$UCSORTHOVIEW
 70
     0
  9
$UCSORGTOP
 10
0.0
 20
0.0
 30
0.0
  9
$UCSORGBOTTOM
 10
0.0
 20
0.0
 30
0.0
  9
$UCSORGLEFT
 10
0.0
 20
0.0
 30
0.0
  9
$UCSORGRIGHT
 10
0.0
 20
0.0
 30
0.0
  9
$UCSORGFRONT
 10
0.0
 20
0.0
 30
0.0
  9
$UCSORGBACK
 10
0.0
 20
0.0
 30
0.0
  9
$PUCSBASE
  2

  9
$PUCSNAME
  2

  9
$PUCSORG
 10
0.0
 20
0.0
 30
0.0
  9
$PUCSXDIR
 10
1.0
 20
0.0
 30
0.0
  9
$PUCSYDIR
 10
0.0
 20
1.0
 30
0.0
  9
$PUCSORTHOREF
  2

  9
$PUCSORTHOVIEW
 70
     0
  9
$PUCSORGTOP
 10
0.0
 20
0.0
 30
0.0
  9
$PUCSORGBOTTOM
 10
0.0
 20
0.0
 30
0.0
  9
$PUCSORGLEFT
 10
0.0
 20
0.0
 30
0.0
  9
$PUCSORGRIGHT
 10
0.0
 20
0.0
 30
0.0
  9
$PUCSORGFRONT
 10
0.0
 20
0.0
 30
0.0
  9
$PUCSORGBACK
 10
0.0
 20
0.0
 30
0.0
  9
$USERI1
 70
     0
  9
$USERI2
 70
     0
  9
$USERI3
 70
     0
  9
$USERI4
 70
     0
  9
$USERI5
 70
     0
  9
$USERR1
 40
0.0
  9
$USERR2
 40
0.0
  9
$USERR3
 40
0.0
  9
$USERR4
 40
0.0
  9
$USERR5
 40
0.0
  9
$WORLDVIEW
 70
     1
  9
$SHADEDGE
 70
     3
  9
$SHADEDIF
 70
    70
  9
$TILEMODE
 70
     0
  9
$MAXACTVP
 70
    16
  9
$PINSBASE
 10
0.0
 20
0.0
 30
0.0
  9
$PLIMCHECK
 70
     0
  9
$PEXTMIN
 10
0.0
 20
0.0
 30
0.0
  9
$PEXTMAX
 10
15.999999328
 20
9.999999488
 30
0.0
  9
$PLIMMIN
 10
-0.4321661185780917
 20
-0.4318006439511584
  9
$PLIMMAX
 10
16.4321667180713
 20
12.59972919155003
  9
$UNITMODE
 70
     0
  9
$VISRETAIN
 70
     0
  9
$PLINEGEN
 70
     0
  9
$PSLTSCALE
 70
     1
  9
$TREEDEPTH
 70
  3020
  9
$CMLSTYLE
  2
STANDARD
  9
$CMLJUST
 70
     0
  9
$CMLSCALE
 40
1.0
  9
$PROXYGRAPHICS
 70
     1
  9
$MEASUREMENT
 70
     0
  9
$CELWEIGHT
370
    -1
  9
$ENDCAPS
280
     0
  9
$JOINSTYLE
280
     0
  9
$LWDISPLAY
290
     0
  9
$INSUNITS
 70
     0
  9
$HYPERLINKBASE
  1

  9
$STYLESHEET
  1

  9
$XEDIT
290
     1
  9
$CEPSNTYPE
380
     0
  9
$PSTYLEMODE
290
     1
  9
$FINGERPRINTGUID
  2
{C6F74285-F8EB-42E9-9B64-F4D095F194FB}
  9
$VERSIONGUID
  2
{4F185A48-4159-4B0B-BE10-8E8178017DC3}
  9
$EXTNAMES
290
     1
  9
$PSVPSCALE
 40
0.0
  9
$OLESTARTUP
290
     0
  0
ENDSEC
  0
SECTION
  2
CLASSES
  0
CLASS
  1
DICTIONARYVAR
  2
AcDbDictionaryVar
  3
ObjectDBX Classes
 90
        0
280
     0
281
     0
  0
CLASS
  1
IDBUFFER
  2
AcDbIdBuffer
  3
ObjectDBX Classes
 90
    32768
280
     0
281
     0
  0
CLASS
  1
ACDBDICTIONARYWDFLT
  2
AcDbDictionaryWithDefault
  3
ObjectDBX Classes
 90
        0
280
     0
281
     0
  0
CLASS
  1
MATERIAL
  2
AcDbMaterial
  3
ObjectDBX Classes
 90
     1153
280
     0
281
     0
  0
CLASS
  1
VISUALSTYLE
  2
AcDbVisualStyle
  3
ObjectDBX Classes
 90
     4095
280
     0
281
     0
  0
CLASS
  1
TABLESTYLE
  2
AcDbTableStyle
  3
ObjectDBX Classes
 90
     4095
280
     0
281
     0
  0
CLASS
  1
SCALE
  2
AcDbScale
  3
ObjectDBX Classes
 90
     1153
280
     0
281
     0
  0
CLASS
  1
MLEADERSTYLE
  2
AcDbMLeaderStyle
  3
ACDB_MLEADERSTYLE_CLASS
 90
     4095
280
     0
281
     0
  0
CLASS
  1
SORTENTSTABLE
  2
AcDbSortentsTable
  3
ObjectDBX Classes
 90
    32768
280
     0
281
     0
  0
CLASS
  1
CELLSTYLEMAP
  2
AcDbCellStyleMap
  3
ObjectDBX Classes
 90
     1152
280
     0
281
     0
  0
CLASS
  1
ACDBPLACEHOLDER
  2
AcDbPlaceHolder
  3
ObjectDBX Classes
 90
        0
280
     0
281
     0
  0
CLASS
  1
LAYOUT
  2
AcDbLayout
  3
ObjectDBX Classes
 90
        0
280
     0
281
     0
  0
ENDSEC
  0
SECTION
  2
TABLES
  0
TABLE
  2
VPORT
  5
8
330
0
100
AcDbSymbolTable
 70
     1
  0
VPORT
  5
4E
330
8
100
AcDbSymbolTableRecord
100
AcDbViewportTableRecord
  2
*ACTIVE
 70
     0
 10
0.0
 20
0.0
 11
1.0
 21
1.0
 12
7.243421052631579
 22
4.886035063318936
 13
0.0
 23
0.0
 14
1.0
 24
1.0
 15
0.0
 25
0.0
 16
0.0
 26
0.0
 36
1.0
 17
0.0
 27
0.0
 37
0.0
 40
9.772070126637872
 41
1.482474226804122
 42
50.0
 43
0.0
 44
0.0
 50
0.0
 51
0.0
 71
     0
 72
   100
 73
     1
 74
     3
 75
     0
 76
     0
 77
     0
 78
     0
281
     0
 65
     1
110
0.0
120
0.0
130
0.0
111
1.0
121
0.0
131
0.0
112
0.0
122
1.0
132
0.0
 79
     0
146
0.0
  0
ENDTAB
  0
TABLE
  2
LTYPE
  5
5
330
0
100
AcDbSymbolTable
 70
    37
  0
LTYPE
  5
11
330
5
100
AcDbSymbolTableRecord
100
AcDbLinetypeTableRecord
  2
BYBLOCK
 70
     0
  3

 72
    65
 73
     0
 40
0.0
  0
LTYPE
  5
12
330
5
100
AcDbSymbolTableRecord
100
AcDbLinetypeTableRecord
  2
BYLAYER
 70
     0
  3

 72
    65
 73
     0
 40
0.0
  0
LTYPE
  5
13
330
5
100
AcDbSymbolTableRecord
100
AcDbLinetypeTableRecord
  2
CONTINUOUS
 70
     0
  3
Solid line
 72
    65
 73
     0
 40
0.0
  0
LTYPE
  5
23
330
5
100
AcDbSymbolTableRecord
100
AcDbLinetypeTableRecord
  2
CENTER2
 70
     0
  3
___ _ ___ _ ___ _ ___ _ ___ _ ___ _ ___ _ ___ _
 72
    65
 73
     4
 40
1.125
 49
0.75
 74
     0
 49
-0.125
 74
     0
 49
0.125
 74
     0
 49
-0.125
 74
     0
  0
LTYPE
  5
24
330
5
100
AcDbSymbolTableRecord
100
AcDbLinetypeTableRecord
  2
HIDDEN2
 70
     0
  3
__ __ __ __ __ __ __ __ __ __ __ __ __ __ __ __
 72
    65
 73
     2
 40
0.1875
 49
0.125
 74
     0
 49
-0.0625
 74
     0
  0
LTYPE
  5
25
330
5
100
AcDbSymbolTableRecord
100
AcDbLinetypeTableRecord
  2
PHANTOM2
 70
     0
  3
___ _ _ ___ _ _ ___ _ _ ___ _ _ ___ _ _ ___ _ _
 72
    65
 73
     6
 40
1.25
 49
0.625
 74
     0
 49
-0.125
 74
     0
 49
0.125
 74
     0
 49
-0.125
 74
     0
 49
0.125
 74
     0
 49
-0.125
 74
     0
  0
LTYPE
  5
26
330
5
100
AcDbSymbolTableRecord
100
AcDbLinetypeTableRecord
  2
DASHED2
 70
     0
  3
_ _ _ _ _ _ _ _ _ _ _ _ _ _ _ _ _ _ _ _ _ _ _ _
 72
    65
 73
     2
 40
0.375
 49
0.25
 74
     0
 49
-0.125
 74
     0
  0
LTYPE
  5
27
330
5
100
AcDbSymbolTableRecord
100
AcDbLinetypeTableRecord
  2
BORDER
 70
     0
  3
__ __ . __ __ . __ __ . __ __ . __ __ . __ __ .
 72
    65
 73
     6
 40
1.75
 49
0.5
 74
     0
 49
-0.25
 74
     0
 49
0.5
 74
     0
 49
-0.25
 74
     0
 49
0.0
 74
     0
 49
-0.25
 74
     0
  0
LTYPE
  5
28
330
5
100
AcDbSymbolTableRecord
100
AcDbLinetypeTableRecord
  2
BORDER2
 70
     0
  3
__.__.__.__.__.__.__.__.__.__.__.__.__.__.__.__
 72
    65
 73
     6
 40
0.875
 49
0.25
 74
     0
 49
-0.125
 74
     0
 49
0.25
 74
     0
 49
-0.125
 74
     0
 49
0.0
 74
     0
 49
-0.125
 74
     0
  0
LTYPE
  5
29
330
5
100
AcDbSymbolTableRecord
100
AcDbLinetypeTableRecord
  2
BORDERX2
 70
     0
  3
____  ____  .  ____  ____  .  ____  ____  .  __
 72
    65
 73
     6
 40
3.5
 49
1.0
 74
     0
 49
-0.5
 74
     0
 49
1.0
 74
     0
 49
-0.5
 74
     0
 49
0.0
 74
     0
 49
-0.5
 74
     0
  0
LTYPE
  5
2A
330
5
100
AcDbSymbolTableRecord
100
AcDbLinetypeTableRecord
  2
CENTER
 70
     0
  3
____ _ ____ _ ____ _ ____ _ ____ _ ____ _ ____ 
 72
    65
 73
     4
 40
2.0
 49
1.25
 74
     0
 49
-0.25
 74
     0
 49
0.25
 74
     0
 49
-0.25
 74
     0
  0
LTYPE
  5
2B
330
5
100
AcDbSymbolTableRecord
100
AcDbLinetypeTableRecord
  2
CENTER3
 70
     0
  3
__ _ __ _ __ _ __ _ __ _ __ _ __ _ __ _ __ _ __
 72
    65
 73
     4
 40
0.5625
 49
0.375
 74
     0
 49
-0.0625
 74
     0
 49
0.0625
 74
     0
 49
-0.0625
 74
     0
  0
LTYPE
  5
2C
330
5
100
AcDbSymbolTableRecord
100
AcDbLinetypeTableRecord
  2
CENTER4
 70
     0
  3
- --- - --- - --- - --- - --- - --- - --- - ---
 72
    65
 73
     4
 40
0.28125
 49
0.1875
 74
     0
 49
-0.03125
 74
     0
 49
0.03125
 74
     0
 49
-0.03125
 74
     0
  0
LTYPE
  5
2D
330
5
100
AcDbSymbolTableRecord
100
AcDbLinetypeTableRecord
  2
CENTERX2
 70
     0
  3
________  __  ________  __  ________  __  _____
 72
    65
 73
     4
 40
4.0
 49
2.5
 74
     0
 49
-0.5
 74
     0
 49
0.5
 74
     0
 49
-0.5
 74
     0
  0
LTYPE
  5
2E
330
5
100
AcDbSymbolTableRecord
100
AcDbLinetypeTableRecord
  2
DASHDOT
 70
     0
  3
__ . __ . __ . __ . __ . __ . __ . __ . __ . __
 72
    65
 73
     4
 40
1.0
 49
0.5
 74
     0
 49
-0.25
 74
     0
 49
0.0
 74
     0
 49
-0.25
 74
     0
  0
LTYPE
  5
2F
330
5
100
AcDbSymbolTableRecord
100
AcDbLinetypeTableRecord
  2
DASHDOT2
 70
     0
  3
_._._._._._._._._._._._._._._._._._._._._._._._
 72
    65
 73
     4
 40
0.5
 49
0.25
 74
     0
 49
-0.125
 74
     0
 49
0.0
 74
     0
 49
-0.125
 74
     0
  0
LTYPE
  5
30
330
5
100
AcDbSymbolTableRecord
100
AcDbLinetypeTableRecord
  2
DASHDOTX2
 70
     0
  3
____  .  ____  .  ____  .  ____  .  ____  .  __
 72
    65
 73
     4
 40
2.0
 49
1.0
 74
     0
 49
-0.5
 74
     0
 49
0.0
 74
     0
 49
-0.5
 74
     0
  0
LTYPE
  5
31
330
5
100
AcDbSymbolTableRecord
100
AcDbLinetypeTableRecord
  2
DASHED
 70
     0
  3
__ __ __ __ __ __ __ __ __ __ __ __ __ __ __ __
 72
    65
 73
     2
 40
0.75
 49
0.5
 74
     0
 49
-0.25
 74
     0
  0
LTYPE
  5
32
330
5
100
AcDbSymbolTableRecord
100
AcDbLinetypeTableRecord
  2
DASHEDX2
 70
     0
  3
____  ____  ____  ____  ____  ____  ____  ____ 
 72
    65
 73
     2
 40
1.5
 49
1.0
 74
     0
 49
-0.5
 74
     0
  0
LTYPE
  5
33
330
5
100
AcDbSymbolTableRecord
100
AcDbLinetypeTableRecord
  2
DIVIDE
 70
     0
  3
____ . . ____ . . ____ . . ____ . . ____ . . __
 72
    65
 73
     6
 40
1.25
 49
0.5
 74
     0
 49
-0.25
 74
     0
 49
0.0
 74
     0
 49
-0.25
 74
     0
 49
0.0
 74
     0
 49
-0.25
 74
     0
  0
LTYPE
  5
34
330
5
100
AcDbSymbolTableRecord
100
AcDbLinetypeTableRecord
  2
DIVIDE2
 70
     0
  3
__..__..__..__..__..__..__..__..__..__..__..__.
 72
    65
 73
     6
 40
0.625
 49
0.25
 74
     0
 49
-0.125
 74
     0
 49
0.0
 74
     0
 49
-0.125
 74
     0
 49
0.0
 74
     0
 49
-0.125
 74
     0
  0
LTYPE
  5
35
330
5
100
AcDbSymbolTableRecord
100
AcDbLinetypeTableRecord
  2
DIVIDEX2
 70
     0
  3
________  .  .  ________  .  .  ________  .  . 
 72
    65
 73
     6
 40
2.5
 49
1.0
 74
     0
 49
-0.5
 74
     0
 49
0.0
 74
     0
 49
-0.5
 74
     0
 49
0.0
 74
     0
 49
-0.5
 74
     0
  0
LTYPE
  5
36
330
5
100
AcDbSymbolTableRecord
100
AcDbLinetypeTableRecord
  2
DOT
 70
     0
  3
. . . . . . . . . . . . . . . . . . . . . . . .
 72
    65
 73
     2
 40
0.25
 49
0.0
 74
     0
 49
-0.25
 74
     0
  0
LTYPE
  5
37
330
5
100
AcDbSymbolTableRecord
100
AcDbLinetypeTableRecord
  2
DOT2
 70
     0
  3
...............................................
 72
    65
 73
     2
 40
0.125
 49
0.0
 74
     0
 49
-0.125
 74
     0
  0
LTYPE
  5
38
330
5
100
AcDbSymbolTableRecord
100
AcDbLinetypeTableRecord
  2
DOTX2
 70
     0
  3
.  .  .  .  .  .  .  .  .  .  .  .  .  .  .  . 
 72
    65
 73
     2
 40
0.5
 49
0.0
 74
     0
 49
-0.5
 74
     0
  0
LTYPE
  5
39
330
5
100
AcDbSymbolTableRecord
100
AcDbLinetypeTableRecord
  2
HIDDEN
 70
     0
  3
___ ___ ___ ___ ___ ___ ___ ___ ___ ___ ___ ___
 72
    65
 73
     2
 40
0.375
 49
0.25
 74
     0
 49
-0.125
 74
     0
  0
LTYPE
  5
3A
330
5
100
AcDbSymbolTableRecord
100
AcDbLinetypeTableRecord
  2
HIDDEN3
 70
     0
  3
_ _ _ _ _ _ _ _ _ _ _ _ _ _ _ _ _ _ _ _ _ _ _ _
 72
    65
 73
     2
 40
0.125
 49
0.0625
 74
     0
 49
-0.0625
 74
     0
  0
LTYPE
  5
3B
330
5
100
AcDbSymbolTableRecord
100
AcDbLinetypeTableRecord
  2
HIDDEN4
 70
     0
  3
_ _ _ _ _ _ _ _ _ _ _ _ _ _ _ _ _ _ _ _ _ _ _ _
 72
    65
 73
     2
 40
0.0625
 49
0.03125
 74
     0
 49
-0.03125
 74
     0
  0
LTYPE
  5
3C
330
5
100
AcDbSymbolTableRecord
100
AcDbLinetypeTableRecord
  2
HIDDENX2
 70
     0
  3
____  ____  ____  ____  ____  ____  ____  ____ 
 72
    65
 73
     2
 40
0.75
 49
0.5
 74
     0
 49
-0.25
 74
     0
  0
LTYPE
  5
3D
330
5
100
AcDbSymbolTableRecord
100
AcDbLinetypeTableRecord
  2
PHANTOM
 70
     0
  3
______  __  __  ______  __  __  ______  __  __ 
 72
    65
 73
     6
 40
2.5
 49
1.25
 74
     0
 49
-0.25
 74
     0
 49
0.25
 74
     0
 49
-0.25
 74
     0
 49
0.25
 74
     0
 49
-0.25
 74
     0
  0
LTYPE
  5
3E
330
5
100
AcDbSymbolTableRecord
100
AcDbLinetypeTableRecord
  2
PHANTOM3
 70
     0
  3
___ _ _ ___ _ _ ___ _ _ ___ _ _ ___ _ _ ___ _ _
 72
    65
 73
     6
 40
0.625
 49
0.3125
 74
     0
 49
-0.0625
 74
     0
 49
0.0625
 74
     0
 49
-0.0625
 74
     0
 49
0.0625
 74
     0
 49
-0.0625
 74
     0
  0
LTYPE
  5
3F
330
5
100
AcDbSymbolTableRecord
100
AcDbLinetypeTableRecord
  2
PHANTOM4
 70
     0
  3
___ _ _ ___ _ _ ___ _ _ ___ _ _ ___ _ _ ___ _ _
 72
    65
 73
     6
 40
0.31225
 49
0.156
 74
     0
 49
-0.03125
 74
     0
 49
0.03125
 74
     0
 49
-0.03125
 74
     0
 49
0.03125
 74
     0
 49
-0.03125
 74
     0
  0
LTYPE
  5
40
330
5
100
AcDbSymbolTableRecord
100
AcDbLinetypeTableRecord
  2
PHANTOMX2
 70
     0
  3
____________    ____    ____    ____________   
 72
    65
 73
     6
 40
5.0
 49
2.5
 74
     0
 49
-0.5
 74
     0
 49
0.5
 74
     0
 49
-0.5
 74
     0
 49
0.5
 74
     0
 49
-0.5
 74
     0
  0
LTYPE
  5
41
330
5
100
AcDbSymbolTableRecord
100
AcDbLinetypeTableRecord
  2
1DASH
 70
     0
  3
_____ _ ______ _ ______ _ ______
 72
    65
 73
     4
 40
1.3
 49
0.75
 74
     0
 49
-0.25
 74
     0
 49
0.05
 74
     0
 49
-0.25
 74
     0
  0
LTYPE
  5
42
330
5
100
AcDbSymbolTableRecord
100
AcDbLinetypeTableRecord
  2
2DASHES
 70
     0
  3
____ _ _ _____ _ _ ____ _ _ ____
 72
    65
 73
     6
 40
1.7
 49
0.75
 74
     0
 49
-0.25
 74
     0
 49
0.1
 74
     0
 49
-0.25
 74
     0
 49
0.1
 74
     0
 49
-0.25
 74
     0
  0
LTYPE
  5
43
330
5
100
AcDbSymbolTableRecord
100
AcDbLinetypeTableRecord
  2
3DASHES
 70
     0
  3
_____ _ _ _ ______ _ _ _ ______ _ _ _ ______
 72
    65
 73
     8
 40
2.049999999999998
 49
0.75
 74
     0
 49
-0.25
 74
     0
 49
0.1
 74
     0
 49
-0.25
 74
     0
 49
0.1
 74
     0
 49
-0.25
 74
     0
 49
0.1
 74
     0
 49
-0.25
 74
     0
  0
LTYPE
  5
44
330
5
100
AcDbSymbolTableRecord
100
AcDbLinetypeTableRecord
  2
1DOT
 70
     0
  3
______ . ______ . ______ . ______
 72
    65
 73
     4
 40
1.25
 49
0.75
 74
     0
 49
-0.25
 74
     0
 49
0.0
 74
     0
 49
-0.25
 74
     0
  0
LTYPE
  5
45
330
5
100
AcDbSymbolTableRecord
100
AcDbLinetypeTableRecord
  2
2DOTS
 70
     0
  3
______ . . ______ . . ______ . . ______
 72
    65
 73
     6
 40
1.5
 49
0.75
 74
     0
 49
-0.25
 74
     0
 49
0.0
 74
     0
 49
-0.25
 74
     0
 49
0.0
 74
     0
 49
-0.25
 74
     0
  0
LTYPE
  5
46
330
5
100
AcDbSymbolTableRecord
100
AcDbLinetypeTableRecord
  2
3DOTS
 70
     0
  3
______ . . . ______ . . . ______ . . . ______
 72
    65
 73
     8
 40
1.75
 49
0.75
 74
     0
 49
-0.25
 74
     0
 49
0.0
 74
     0
 49
-0.25
 74
     0
 49
0.0
 74
     0
 49
-0.25
 74
     0
 49
0.0
 74
     0
 49
-0.25
 74
     0
  0
ENDTAB
  0
TABLE
  2
LAYER
  5
2
102
{ACAD_XDICTIONARY
360
945
102
}
330
0
100
AcDbSymbolTable
 70
    19
  0
LAYER
  5
E
102
{ACAD_XDICTIONARY
360
8FF
102
}
330
2
100
AcDbSymbolTableRecord
100
AcDbLayerTableRecord
  2
0
 70
     0
 62
     7
  6
CONTINUOUS
370
    -3
390
CF
  0
LAYER
  5
52
102
{ACAD_XDICTIONARY
360
901
102
}
330
2
100
AcDbSymbolTableRecord
100
AcDbLayerTableRecord
  2
CENTER
 70
     0
 62
     1
  6
CENTER2
370
    -3
390
CF
  0
LAYER
  5
53
102
{ACAD_XDICTIONARY
360
903
102
}
330
2
100
AcDbSymbolTableRecord
100
AcDbLayerTableRecord
  2
DIM01
 70
     0
 62
    30
  6
CONTINUOUS
370
    -3
390
CF
  0
LAYER
  5
54
102
{ACAD_XDICTIONARY
360
905
102
}
330
2
100
AcDbSymbolTableRecord
100
AcDbLayerTableRecord
  2
DIM02
 70
     0
 62
    40
  6
CONTINUOUS
370
    -3
390
CF
  0
LAYER
  5
55
102
{ACAD_XDICTIONARY
360
907
102
}
330
2
100
AcDbSymbolTableRecord
100
AcDbLayerTableRecord
  2
HATCH
 70
     0
 62
     5
  6
CONTINUOUS
370
    -3
390
CF
  0
LAYER
  5
56
102
{ACAD_XDICTIONARY
360
909
102
}
330
2
100
AcDbSymbolTableRecord
100
AcDbLayerTableRecord
  2
HIDDEN
 70
     0
 62
     3
  6
HIDDEN2
370
    -3
390
CF
  0
LAYER
  5
57
102
{ACAD_XDICTIONARY
360
90B
102
}
330
2
100
AcDbSymbolTableRecord
100
AcDbLayerTableRecord
  2
CONSTRUCTION
 70
     0
 62
    30
  6
DASHED2
370
    -3
390
CF
  0
LAYER
  5
58
102
{ACAD_XDICTIONARY
360
90D
102
}
330
2
100
AcDbSymbolTableRecord
100
AcDbLayerTableRecord
  2
OBJFINE
 70
     0
 62
     4
  6
CONTINUOUS
370
    -3
390
CF
  0
LAYER
  5
59
102
{ACAD_XDICTIONARY
360
90F
102
}
330
2
100
AcDbSymbolTableRecord
100
AcDbLayerTableRecord
  2
OBJMEDIUM
 70
     0
 62
   230
  6
CONTINUOUS
370
    -3
390
CF
  0
LAYER
  5
5A
102
{ACAD_XDICTIONARY
360
911
102
}
330
2
100
AcDbSymbolTableRecord
100
AcDbLayerTableRecord
  2
OBJHEAVY
 70
     0
 62
     2
  6
CONTINUOUS
370
    -3
390
CF
  0
LAYER
  5
5B
102
{ACAD_XDICTIONARY
360
913
102
}
330
2
100
AcDbSymbolTableRecord
100
AcDbLayerTableRecord
  2
PARTLIST
 70
     0
 62
     9
  6
CONTINUOUS
370
    -3
390
CF
  0
LAYER
  5
5C
102
{ACAD_XDICTIONARY
360
915
102
}
330
2
100
AcDbSymbolTableRecord
100
AcDbLayerTableRecord
  2
PHANTOM
 70
     0
 62
     6
  6
PHANTOM2
370
    -3
390
CF
  0
LAYER
  5
5D
102
{ACAD_XDICTIONARY
360
917
102
}
330
2
100
AcDbSymbolTableRecord
100
AcDbLayerTableRecord
  2
QC
 70
     0
 62
    10
  6
CONTINUOUS
370
    -3
390
CF
  0
LAYER
  5
5E
102
{ACAD_XDICTIONARY
360
919
102
}
330
2
100
AcDbSymbolTableRecord
100
AcDbLayerTableRecord
  2
SECTIONLINE
 70
     0
 62
    20
  6
PHANTOM2
370
    -3
390
CF
  0
LAYER
  5
5F
102
{ACAD_XDICTIONARY
360
91B
102
}
330
2
100
AcDbSymbolTableRecord
100
AcDbLayerTableRecord
  2
TEXT
 70
     0
 62
    90
  6
CONTINUOUS
370
    -3
390
CF
  0
LAYER
  5
60
102
{ACAD_XDICTIONARY
360
91D
102
}
330
2
100
AcDbSymbolTableRecord
100
AcDbLayerTableRecord
  2
VIEWPORTS
 70
     1
 62
     9
  6
CONTINUOUS
370
    -3
390
CF
  0
LAYER
  5
61
102
{ACAD_XDICTIONARY
360
91F
102
}
330
2
100
AcDbSymbolTableRecord
100
AcDbLayerTableRecord
  2
SHEET-TXT
 70
     0
 62
     7
  6
CONTINUOUS
370
    -3
390
CF
  0
LAYER
  5
62
102
{ACAD_XDICTIONARY
360
921
102
}
330
2
100
AcDbSymbolTableRecord
100
AcDbLayerTableRecord
  2
SHEET
 70
     0
 62
     7
  6
CONTINUOUS
370
    -3
390
CF
  0
LAYER
  5
63
330
2
100
AcDbSymbolTableRecord
100
AcDbLayerTableRecord
  2
DEFPOINTS
 70
     0
 62
     7
  6
CONTINUOUS
290
     0
370
    -3
390
CF
  0
ENDTAB
  0
TABLE
  2
STYLE
  5
3
330
0
100
AcDbSymbolTable
 70
     2
  0
STYLE
  5
F
330
3
100
AcDbSymbolTableRecord
100
AcDbTextStyleTableRecord
  2
STANDARD
 70
     0
 40
0.0
 41
0.95
 50
0.0
 71
     0
 42
0.2
  3
F:\ACADWIN\FONTS\ROMANS.SHX
  4

  0
STYLE
  5
22
330
3
100
AcDbSymbolTableRecord
100
AcDbTextStyleTableRecord
  2
SANSSERIFBOLD
 70
     0
 40
0.0
 41
1.0
 50
0.0
 71
     0
 42
1.0
  3
sasb____.pfb
  4

  0
ENDTAB
  0
TABLE
  2
VIEW
  5
6
330
0
100
AcDbSymbolTable
 70
     5
  0
VIEW
  5
47
330
6
100
AcDbSymbolTableRecord
100
AcDbViewTableRecord
  2
BASE
 70
     1
 40
9.999999488
 10
7.999999663999999
 20
4.999999744
 41
15.999999328
 11
0.0
 21
0.0
 31
1.0
 12
0.0
 22
0.0
 32
0.0
 42
50.0
 43
0.0
 44
0.0
 50
0.0
 71
     0
281
     0
 72
     0
  0
VIEW
  5
48
330
6
100
AcDbSymbolTableRecord
100
AcDbViewTableRecord
  2
REVBLK_01
 70
     1
 40
1.599999897599999
 10
7.485399872934398
 20
0.7999999488000002
 41
3.970799745868799
 11
0.0
 21
0.0
 31
1.0
 12
0.0
 22
0.0
 32
0.0
 42
50.0
 43
0.0
 44
0.0
 50
0.0
 71
     0
281
     0
 72
     0
  0
VIEW
  5
49
330
6
100
AcDbSymbolTableRecord
100
AcDbViewTableRecord
  2
TITLEBLK_01
 70
     1
 40
1.599999897599999
 10
12.7353995369344
 20
0.7999999488000002
 41
6.529199582131202
 11
0.0
 21
0.0
 31
1.0
 12
0.0
 22
0.0
 32
0.0
 42
50.0
 43
0.0
 44
0.0
 50
0.0
 71
     0
281
     0
 72
     0
  0
VIEW
  5
4A
330
6
100
AcDbSymbolTableRecord
100
AcDbViewTableRecord
  2
TOLBLK_01
 70
     1
 40
0.7499999519999998
 10
12.3764495171072
 20
1.9749998736
 41
1.337499999999998
 11
0.0
 21
0.0
 31
1.0
 12
0.0
 22
0.0
 32
0.0
 42
50.0
 43
0.0
 44
0.0
 50
0.0
 71
     0
281
     0
 72
     0
  0
VIEW
  5
4B
330
6
100
AcDbSymbolTableRecord
100
AcDbViewTableRecord
  2
SHEET_01
 70
     1
 40
9.999999488
 10
7.999999663999999
 20
4.999999744
 41
15.999999328
 11
0.0
 21
0.0
 31
1.0
 12
0.0
 22
0.0
 32
0.0
 42
50.0
 43
0.0
 44
0.0
 50
0.0
 71
     0
281
     0
 72
     0
  0
ENDTAB
  0
TABLE
  2
UCS
  5
7
330
0
100
AcDbSymbolTable
 70
     2
  0
UCS
  5
4C
330
7
100
AcDbSymbolTableRecord
100
AcDbUCSTableRecord
  2
BASE
 70
     0
 10
0.0
 20
0.0
 30
0.0
 11
1.0
 21
0.0
 31
0.0
 12
0.0
 22
1.0
 32
0.0
 79
     0
146
0.0
  0
UCS
  5
4D
330
7
100
AcDbSymbolTableRecord
100
AcDbUCSTableRecord
  2
SHEET_01
 70
     0
 10
0.0
 20
0.0
 30
0.0
 11
1.0
 21
0.0
 31
0.0
 12
0.0
 22
1.0
 32
0.0
 79
     0
146
0.0
  0
ENDTAB
  0
TABLE
  2
APPID
  5
9
330
0
100
AcDbSymbolTable
 70
     4
  0
APPID
  5
10
330
9
100
AcDbSymbolTableRecord
100
AcDbRegAppTableRecord
  2
ACAD
 70
     0
  0
APPID
  5
121
330
9
100
AcDbSymbolTableRecord
100
AcDbRegAppTableRecord
  2
ACAD_MLEADERVER
 70
     0
  0
APPID
  5
129
330
9
100
AcDbSymbolTableRecord
100
AcDbRegAppTableRecord
  2
ACAD_PSEXT
 70
     0
  0
APPID
  5
8FC
330
9
100
AcDbSymbolTableRecord
100
AcDbRegAppTableRecord
  2
ACAD_EXEMPT_FROM_CAD_STANDARDS
 70
     0
  0
ENDTAB
  0
TABLE
  2
DIMSTYLE
  5
A
330
0
100
AcDbSymbolTable
 70
     1
100
AcDbDimStyleTable
 71
     1
340
C6
  0
DIMSTYLE
105
C6
330
A
100
AcDbSymbolTableRecord
100
AcDbDimStyleTableRecord
  2
STANDARD
 70
     0
340
F
  0
ENDTAB
  0
TABLE
  2
BLOCK_RECORD
  5
1
330
0
100
AcDbSymbolTable
 70
     5
  0
BLOCK_RECORD
  5
17
330
1
100
AcDbSymbolTableRecord
100
AcDbBlockTableRecord
  2
*MODEL_SPACE
340
124
  0
BLOCK_RECORD
  5
14
330
1
100
AcDbSymbolTableRecord
100
AcDbBlockTableRecord
  2
*PAPER_SPACE
340
125
  0
BLOCK_RECORD
  5
1C
330
1
100
AcDbSymbolTableRecord
100
AcDbBlockTableRecord
  2
REVBLK
340
0
  0
BLOCK_RECORD
  5
1D
330
1
100
AcDbSymbolTableRecord
100
AcDbBlockTableRecord
  2
TOLBLK
340
0
  0
BLOCK_RECORD
  5
1E
330
1
100
AcDbSymbolTableRecord
100
AcDbBlockTableRecord
  2
TITLE
340
0
  0
BLOCK_RECORD
  5
1F
330
1
100
AcDbSymbolTableRecord
100
AcDbBlockTableRecord
  2
Y145M-82
340
0
  0
BLOCK_RECORD
  5
21
330
1
100
AcDbSymbolTableRecord
100
AcDbBlockTableRecord
  2
PRE-PROD
340
0
  0
ENDTAB
  0
ENDSEC
  0
SECTION
  2
BLOCKS
  0
BLOCK
  5
67
330
17
100
AcDbEntity
  8
0
100
AcDbBlockBegin
  2
*MODEL_SPACE
 70
     0
 10
0.0
 20
0.0
 30
0.0
  3
*MODEL_SPACE
  1

  0
ENDBLK
  5
68
330
17
100
AcDbEntity
  8
0
100
AcDbBlockEnd
  0
BLOCK
  5
65
330
14
100
AcDbEntity
 67
     1
  8
0
100
AcDbBlockBegin
  2
*PAPER_SPACE
 70
     0
 10
0.0
 20
0.0
 30
0.0
  3
*PAPER_SPACE
  1

  0
ENDBLK
  5
66
330
14
100
AcDbEntity
 67
     1
  8
0
100
AcDbBlockEnd
  0
BLOCK
  5
6B
330
1C
100
AcDbEntity
  8
0
100
AcDbBlockBegin
  2
REVBLK
 70
     2
 10
0.0
 20
0.0
 30
0.0
  3
REVBLK
  1

  0
ATTDEF
  5
6C
330
1C
100
AcDbEntity
  8
SHEET-TXT
 62
    21
100
AcDbText
 10
-0.2715714285714286
 20
0.035
 30
0.0
 40
0.09
  1
**
 72
     1
 11
-0.203
 21
0.035
 31
0.0
100
AcDbAttributeDefinition
  3
REVISION LEVEL ?
  2
REV_LEVEL
 70
     0
  0
ATTDEF
  5
6E
330
1C
100
AcDbEntity
  8
SHEET-TXT
 62
    21
100
AcDbText
 10
1.119857142857142
 20
0.035
 30
0.0
 40
0.085
  1
***
 72
     1
 11
1.217
 21
0.035
 31
0.0
100
AcDbAttributeDefinition
  3
CHANGE TO DRAWING ?
  2
REV_CHANGE
 70
     0
  0
ATTDEF
  5
6F
330
1C
100
AcDbEntity
  8
SHEET-TXT
 62
    21
100
AcDbText
 10
2.704857142857143
 20
0.035
 30
0.0
 40
0.085
  1
***
 72
     1
 11
2.801999999999999
 21
0.035
 31
0.0
100
AcDbAttributeDefinition
  3
REVISION DATE ?
  2
REV_DATE
 70
     0
  0
ATTDEF
  5
70
330
1C
100
AcDbEntity
  8
SHEET-TXT
 62
    21
100
AcDbText
 10
3.274857142857142
 20
0.035
 30
0.0
 40
0.085
  1
***
 72
     1
 11
3.371999999999998
 21
0.035
 31
0.0
100
AcDbAttributeDefinition
  3
REVISED BY ?
  2
REV_BY
 70
     0
  0
ENDBLK
  5
71
330
1C
100
AcDbEntity
  8
0
100
AcDbBlockEnd
  0
BLOCK
  5
72
330
1D
100
AcDbEntity
  8
0
100
AcDbBlockBegin
  2
TOLBLK
 70
     2
 10
0.0
 20
0.0
 30
0.0
  3
TOLBLK
  1

  0
LINE
  5
73
330
1D
100
AcDbEntity
  8
SHEET
 62
    10
100
AcDbLine
 10
-1.337499999999998
 20
0.0
 30
0.0
 11
-1.337499999999998
 21
0.75
 31
0.0
  0
LINE
  5
74
330
1D
100
AcDbEntity
  8
SHEET
 62
    10
100
AcDbLine
 10
0.0
 20
0.75
 30
0.0
 11
0.0
 21
0.0
 31
0.0
  0
LINE
  5
75
330
1D
100
AcDbEntity
  8
SHEET
 62
    10
100
AcDbLine
 10
-1.337499999999998
 20
0.4649999999999998
 30
0.0
 11
0.0
 21
0.4649999999999998
 31
0.0
  0
TEXT
  5
76
330
1D
100
AcDbEntity
  8
SHEET
 62
    10
100
AcDbText
 10
-1.269499999999998
 20
0.5271999999999996
 30
0.0
 40
0.07
  1
Otherwise Specified
 41
0.95
100
AcDbText
  0
LINE
  5
77
330
1D
100
AcDbEntity
  8
SHEET
 62
    10
100
AcDbLine
 10
0.0
 20
0.0
 30
0.0
 11
-1.337499999999998
 21
0.0
 31
0.0
  0
TEXT
  5
78
330
1D
100
AcDbEntity
  8
SHEET
 62
    10
100
AcDbText
 10
-0.9184646881394773
 20
0.0239000000000001
 30
0.0
 40
0.07
  1
------
 41
0.95
100
AcDbText
  0
TEXT
  5
79
330
1D
100
AcDbEntity
  8
SHEET
 62
    10
100
AcDbText
 10
-1.002244720318065
 20
0.1739000000000008
 30
0.0
 40
0.07
  1
-------
 41
0.95
100
AcDbText
  0
TEXT
  5
7A
330
1D
100
AcDbEntity
  8
SHEET
 62
    10
100
AcDbText
 10
-1.269499999999998
 20
0.3472000000000002
 30
0.0
 40
0.07
  1
Angles
 41
0.95
100
AcDbText
  0
TEXT
  5
7B
330
1D
100
AcDbEntity
  8
SHEET
 62
    10
100
AcDbText
 10
-1.269499999999998
 20
0.1971999999999994
 30
0.0
 40
0.07
  1
x.xx
 41
0.95
100
AcDbText
  0
TEXT
  5
7C
330
1D
100
AcDbEntity
  8
SHEET
 62
    10
100
AcDbText
 10
-1.269499999999998
 20
0.0472000000000005
 30
0.0
 40
0.07
  1
x.xxx
 41
0.95
100
AcDbText
  0
TEXT
  5
7D
330
1D
100
AcDbEntity
  8
SHEET
 62
    10
100
AcDbText
 10
-0.8384999999999989
 20
0.3238999999999997
 30
0.0
 40
0.07
  1
-----
 41
0.95
100
AcDbText
  0
TEXT
  5
7E
330
1D
100
AcDbEntity
  8
SHEET
 62
    10
100
AcDbText
 10
-1.269499999999998
 20
0.6322000000000006
 30
0.0
 40
0.07
  1
Tolerances Unless
 41
0.95
100
AcDbText
  0
LINE
  5
7F
330
1D
100
AcDbEntity
  8
SHEET
 62
    10
100
AcDbLine
 10
-1.337499999999998
 20
0.75
 30
0.0
 11
0.0
 21
0.75
 31
0.0
  0
ATTDEF
  5
80
330
1D
100
AcDbEntity
  8
SHEET
 62
    10
100
AcDbText
 10
-0.3692499999999994
 20
0.3473000000000001
 30
0.0
 40
0.07
  1
%%p0.5%%d
100
AcDbAttributeDefinition
  3
ANGLE TOLERANCE
  2
TOL_ANGLE
 70
     0
  0
ATTDEF
  5
81
330
1D
100
AcDbEntity
  8
SHEET
 62
    10
100
AcDbText
 10
-0.3692499999999994
 20
0.1972999999999994
 30
0.0
 40
0.07
  1
%%p.015
100
AcDbAttributeDefinition
  3
X.XX TOLERANCE
  2
TOL_HUNDRED
 70
     0
  0
ATTDEF
  5
82
330
1D
100
AcDbEntity
  8
SHEET
 62
    10
100
AcDbText
 10
-0.3692499999999994
 20
0.0473000000000005
 30
0.0
 40
0.07
  1
%%p.005
100
AcDbAttributeDefinition
  3
X.XXX TOLERANCE
  2
TOL_THOUSAND
 70
     0
  0
ENDBLK
  5
83
330
1D
100
AcDbEntity
  8
0
100
AcDbBlockEnd
  0
BLOCK
  5
84
330
1E
100
AcDbEntity
  8
0
100
AcDbBlockBegin
  2
TITLE
 70
     2
 10
0.0
 20
0.0
 30
0.0
  3
TITLE
  1

  0
ATTDEF
  5
85
330
1E
100
AcDbEntity
  8
SHEET-TXT
 62
   131
100
AcDbText
 10
-4.878713982226288
 20
1.213999999999998
 30
0.0
 40
0.125
  1
***
 41
0.95
 72
     1
 11
-4.742999696512002
 21
1.213999999999998
 31
0.0
100
AcDbAttributeDefinition
  3
FINISH ?
  2
DWG_FINISH
 70
     0
  0
ATTDEF
  5
86
330
1E
100
AcDbEntity
  8
SHEET-TXT
 62
   131
100
AcDbText
 10
-4.877713982226288
 20
0.622
 30
0.0
 40
0.125
  1
***
 41
0.95
 72
     1
 11
-4.741999696512002
 21
0.622
 31
0.0
100
AcDbAttributeDefinition
  3
MATERIAL ?
  2
DWG_MATERIAL
 70
     0
  0
ATTDEF
  5
87
330
1E
100
AcDbEntity
  8
SHEET-TXT
 62
   131
100
AcDbText
 10
-4.966142553654858
 20
0.151
 30
0.0
 40
0.2
  1
***
 41
0.95
 72
     1
 11
-4.748999696512001
 21
0.151
 31
0.0
100
AcDbAttributeDefinition
  3
DRAWING NAME ?
  2
DWG_NAME
 70
     0
  0
ATTDEF
  5
88
330
1E
100
AcDbEntity
  8
SHEET-TXT
 62
   131
100
AcDbText
 10
-3.250476190476191
 20
0.595
 30
0.0
 40
0.125
  1
**
 41
0.95
 72
     1
 11
-3.160000000000001
 21
0.595
 31
0.0
100
AcDbAttributeDefinition
  3
UNIT OF MEASURE ?
  2
DWG_UOM
 70
     0
  0
ATTDEF
  5
89
330
1E
100
AcDbEntity
  8
SHEET-TXT
 62
   131
100
AcDbText
 10
-1.551285714285715
 20
0.17
 30
0.0
 40
0.15
  1
*
 41
0.95
 72
     1
 11
-1.497
 21
0.17
 31
0.0
100
AcDbAttributeDefinition
  3
DRAWING NUMBER ?
  2
DWG_NUMBER
 70
     0
  0
ATTDEF
  5
8A
330
1E
100
AcDbEntity
  8
SHEET-TXT
 62
   131
100
AcDbText
 10
-2.356714285714286
 20
0.7629999999999999
 30
0.0
 40
0.125
  1
***
 41
0.95
 72
     1
 11
-2.221
 21
0.7629999999999999
 31
0.0
100
AcDbAttributeDefinition
  3
DRAWN BY ?
  2
DWG_DRAWN_BY
 70
     0
  0
ATTDEF
  5
8B
330
1E
100
AcDbEntity
  8
SHEET-TXT
 62
   131
100
AcDbText
 10
-2.443176943150981
 20
0.6059999999999999
 30
0.0
 40
0.085
  1
***
 41
0.95
 72
     1
 11
-2.350891228865267
 21
0.6059999999999999
 31
0.0
100
AcDbAttributeDefinition
  3
DATE DRAWN ?
  2
DWG_DRAWN_DATE
 70
     0
  0
ATTDEF
  5
8C
330
1E
100
AcDbEntity
  8
SHEET-TXT
 62
   131
100
AcDbText
 10
-1.394714285714287
 20
0.762
 30
0.0
 40
0.125
  1
***
 41
0.95
 72
     1
 11
-1.259000000000001
 21
0.762
 31
0.0
100
AcDbAttributeDefinition
  3
DRAWING CHECKED BY ?
  2
DWG_CHKD_BY
 70
     0
  0
ATTDEF
  5
8D
330
1E
100
AcDbEntity
  8
SHEET-TXT
 62
   131
100
AcDbText
 10
-1.462285714285714
 20
0.605
 30
0.0
 40
0.085
  1
***
 41
0.95
 72
     1
 11
-1.37
 21
0.605
 31
0.0
100
AcDbAttributeDefinition
  3
DATE DRAWING CHECKED ?
  2
DWG_CHKD_DATE
 70
     0
  0
ATTDEF
  5
8E
330
1E
100
AcDbEntity
  8
SHEET-TXT
 62
   131
100
AcDbText
 10
-0.7359321115003433
 20
0.6834830968519618
 30
0.0
 40
0.125
  1
NONE
 50
0.0000000000000013
 41
0.95
 72
     1
 11
-0.4899499686432005
 21
0.6834830968519618
 31
0.0
100
AcDbAttributeDefinition
  3
DRAWING SCALE ?
  2
DWG_SCALE
 70
     0
  0
ATTDEF
  5
8F
330
1E
100
AcDbEntity
  8
SHEET-TXT
 62
   131
100
AcDbText
 10
-4.85157112508343
 20
1.313598853056515
 30
0.0
 40
0.1
  1
***
 41
0.95
 72
     1
 11
-4.742999696512002
 21
1.313598853056515
 31
0.0
100
AcDbAttributeDefinition
  3
FINISH - LINE 1 ?
  2
DWG_FINISH_2A
 70
     0
  0
ATTDEF
  5
90
330
1E
100
AcDbEntity
  8
SHEET-TXT
 62
   131
100
AcDbText
 10
-4.85157112508343
 20
1.135089090827787
 30
0.0
 40
0.1
  1
***
 41
0.95
 72
     1
 11
-4.742999696512002
 21
1.135089090827787
 31
0.0
100
AcDbAttributeDefinition
  3
FINISH - LINE 2 ?
  2
DWG_FINISH_2B
 70
     0
  0
ATTDEF
  5
91
330
1E
100
AcDbEntity
  8
SHEET-TXT
 62
   131
100
AcDbText
 10
-4.839713982226288
 20
0.6965760180271047
 30
0.0
 40
0.09
  1
***
 41
0.95
 72
     1
 11
-4.741999696512002
 21
0.6965760180271047
 31
0.0
100
AcDbAttributeDefinition
  3
MATERIAL - LINE 1 ?
  2
DWG_MATERIAL_2A
 70
     0
  0
ATTDEF
  5
92
330
1E
100
AcDbEntity
  8
SHEET-TXT
 62
   131
100
AcDbText
 10
-4.839713982226288
 20
0.5762759665918262
 30
0.0
 40
0.09
  1
***
 41
0.95
 72
     1
 11
-4.741999696512002
 21
0.5762759665918262
 31
0.0
100
AcDbAttributeDefinition
  3
MATERIAL - LINE 2 ?
  2
DWG_MATERIAL_2B
 70
     0
  0
ATTDEF
  5
93
330
1E
100
AcDbEntity
  8
SHEET-TXT
 62
   131
100
AcDbText
 10
-4.911856839369144
 20
0.2425403673734042
 30
0.0
 40
0.15
  1
***
 41
0.95
 72
     1
 11
-4.748999696512001
 21
0.2425403673734042
 31
0.0
100
AcDbAttributeDefinition
  3
DRAWING NAME - LINE 1 ?
  2
DWG_NAME_2A
 70
     0
  0
ATTDEF
  5
94
330
1E
100
AcDbEntity
  8
SHEET-TXT
 62
   131
100
AcDbText
 10
-4.911856839369144
 20
0.0588370418820972
 30
0.0
 40
0.15
  1
***
 41
0.95
 72
     1
 11
-4.748999696512001
 21
0.0588370418820972
 31
0.0
100
AcDbAttributeDefinition
  3
DRAWING NAME - LINE 2 ?
  2
DWG_NAME_2B
 70
     0
  0
ENDBLK
  5
95
330
1E
100
AcDbEntity
  8
0
100
AcDbBlockEnd
  0
BLOCK
  5
96
330
1F
100
AcDbEntity
  8
0
100
AcDbBlockBegin
  2
Y145M-82
 70
     0
 10
0.0
 20
0.0
 30
0.0
  3
Y145M-82
  1

  0
TEXT
  5
97
330
1F
100
AcDbEntity
  8
SHEET
 62
    80
100
AcDbText
 10
0.0
 20
0.0
 30
0.0
 40
0.124999992
  1
ANSI Y14.5M-1982
 41
0.95
100
AcDbText
  0
TEXT
  5
98
330
1F
100
AcDbEntity
  8
SHEET
 62
    80
100
AcDbText
 10
0.0
 20
0.2030999870015999
 30
0.0
 40
0.124999992
  1
in accordance with
 41
0.95
100
AcDbText
  0
TEXT
  5
99
330
1F
100
AcDbEntity
  8
SHEET
 62
    80
100
AcDbText
 10
-0.1093999929983997
 20
0.4062999739968003
 30
0.0
 40
0.124999992
  1
 This drawing prepared
 41
0.95
100
AcDbText
  0
ENDBLK
  5
9A
330
1F
100
AcDbEntity
  8
0
100
AcDbBlockEnd
  0
BLOCK
  5
9E
330
21
100
AcDbEntity
  8
0
100
AcDbBlockBegin
  2
PRE-PROD
 70
     0
 10
0.0
 20
0.0
 30
0.0
  3
PRE-PROD
  1

  0
TEXT
  5
9F
330
21
100
AcDbEntity
  8
SHEET-TXT
100
AcDbText
 10
-8.187163724058667
 20
0.3241590006604853
 30
0.0
 40
1.0
  1
PRE-PRODUCTION
 50
30.0
  7
SANSSERIFBOLD
100
AcDbText
  0
ENDBLK
  5
A1
330
21
100
AcDbEntity
  8
0
100
AcDbBlockEnd
  0
ENDSEC
  0
SECTION
  2
ENTITIES
  0
VIEWPORT
  5
A2
102
{ACAD_XDICTIONARY
360
9AB
102
}
330
14
100
AcDbEntity
 67
     1
  8
0
100
AcDbViewport
 10
8.000000339011945
 20
5.02846203755702
 30
0.0
 40
16.12373464841133
 41
10.59268137028542
 68
     1
 69
     1
 12
8.000000339011945
 22
5.02846203755702
 13
0.0
 23
0.0
 14
1.0
 24
1.0
 15
0.0
 25
0.0
 16
0.0
 26
0.0
 36
1.0
 17
0.0
 27
0.0
 37
0.0
 42
50.0
 43
0.0
 44
0.0
 45
10.59268137028542
 50
0.0
 51
0.0
 72
   100
 90
    32800
  1

281
     0
 71
     1
 74
     0
110
0.0
120
0.0
130
0.0
111
1.0
121
0.0
131
0.0
112
0.0
122
1.0
132
0.0
 79
     0
146
0.0
  0
VIEWPORT
  5
AE
102
{ACAD_XDICTIONARY
360
9AD
102
}
330
14
100
AcDbEntity
 67
     1
  8
VIEWPORTS
100
AcDbViewport
 10
7.999999663999999
 20
4.999999744
 30
0.0
 40
15.999999328
 41
9.999999488
 68
     2
 69
     2
 12
5.208333407142664
 22
5.673235089857519
 13
0.0
 23
0.0
 14
1.0
 24
1.0
 15
0.0
 25
0.0
 16
0.0
 26
0.0
 36
1.0
 17
0.0
 27
0.0
 37
0.0
 42
50.0
 43
0.0
 44
0.0
 45
9.999999488
 50
0.0
 51
0.0
 72
   100
 90
    32864
  1

281
     0
 71
     1
 74
     0
110
0.0
120
0.0
130
0.0
111
1.0
121
0.0
131
0.0
112
0.0
122
1.0
132
0.0
 79
     0
146
0.0
  0
LINE
  5
C9
330
14
100
AcDbEntity
 67
     1
  8
0
100
AcDbLine
 10
0.0
 20
9.999999488
 30
0.0
 11
15.999999328
 21
9.999999488
 31
0.0
  0
LINE
  5
CA
330
14
100
AcDbEntity
 67
     1
  8
0
100
AcDbLine
 10
15.999999328
 20
9.999999488
 30
0.0
 11
15.999999328
 21
0.0
 31
0.0
  0
LINE
  5
CB
330
14
100
AcDbEntity
 67
     1
  8
0
100
AcDbLine
 10
15.999999328
 20
0.0
 30
0.0
 11
0.0
 21
0.0
 31
0.0
  0
LINE
  5
CC
330
14
100
AcDbEntity
 67
     1
  8
0
100
AcDbLine
 10
0.0
 20
0.0
 30
0.0
 11
0.0
 21
9.999999488
 31
0.0
  0
LINE
  5
516
330
14
100
AcDbEntity
 67
     1
  8
0
100
AcDbLine
 10
0.7760832712848629
 20
5.585740537250217
 30
0.0
 11
0.7760832712848629
 21
7.674649512330907
 31
0.0
  0
LINE
  5
517
330
14
100
AcDbEntity
 67
     1
  8
0
100
AcDbLine
 10
3.224507737625731
 20
5.226225045990037
 30
0.0
 11
1.13559876254504
 21
5.226225045990037
 31
0.0
  0
LINE
  5
518
330
14
100
AcDbEntity
 67
     1
  8
0
100
AcDbLine
 10
0.901913693225925
 20
7.674649512330907
 30
0.0
 11
0.901913693225925
 21
5.585740537250217
 31
0.0
  0
LINE
  5
519
330
14
100
AcDbEntity
 67
     1
  8
0
100
AcDbLine
 10
0.9266487737691342
 20
7.659153154949003
 30
0.0
 11
0.9266487737691342
 21
5.602476603222672
 31
0.0
  0
LINE
  5
51A
330
14
100
AcDbEntity
 67
     1
  8
0
100
AcDbLine
 10
1.13559876254504
 20
5.352055467931099
 30
0.0
 11
3.224507737625731
 21
5.352055467931099
 31
0.0
  0
LINE
  5
51B
330
14
100
AcDbEntity
 67
     1
  8
0
100
AcDbLine
 10
1.152334828517495
 20
5.376790548474309
 30
0.0
 11
3.209011380243828
 21
5.376790548474309
 31
0.0
  0
LINE
  5
51C
330
14
100
AcDbEntity
 67
     1
  8
0
100
AcDbLine
 10
1.152334828517495
 20
5.400557624755371
 30
0.0
 11
3.209011380243828
 21
5.400557624755371
 31
0.0
  0
LINE
  5
51D
330
14
100
AcDbEntity
 67
     1
  8
0
100
AcDbLine
 10
3.209011380243828
 20
5.409701917391783
 30
0.0
 11
1.152334828517497
 21
5.409701917391783
 31
0.0
  0
LINE
  5
51E
330
14
100
AcDbEntity
 67
     1
  8
0
100
AcDbLine
 10
0.9504158500501953
 20
7.659153154949003
 30
0.0
 11
0.9504158500501953
 21
5.602476603222672
 31
0.0
  0
LINE
  5
51F
330
14
100
AcDbEntity
 67
     1
  8
0
100
AcDbLine
 10
0.9595601426866087
 20
5.602476603222672
 30
0.0
 11
0.9595601426866087
 21
7.659153154949003
 31
0.0
  0
LINE
  5
520
330
14
100
AcDbEntity
 67
     1
  8
0
100
AcDbLine
 10
3.755722868677408
 20
6.548374257814107
 30
0.0
 11
3.600759294858366
 21
6.548374257814107
 31
0.0
  0
LINE
  5
521
330
14
100
AcDbEntity
 67
     1
  8
0
100
AcDbLine
 10
0.604383631493363
 20
6.548374257814107
 30
0.0
 11
0.7593472053124053
 21
6.548374257814107
 31
0.0
  0
LINE
  5
522
330
14
100
AcDbEntity
 67
     1
  8
0
100
AcDbLine
 10
0.7593472053124053
 20
6.712015791767018
 30
0.0
 11
0.604383631493363
 21
6.712015791767018
 31
0.0
  0
LINE
  5
523
330
14
100
AcDbEntity
 67
     1
  8
0
100
AcDbLine
 10
3.600759294858366
 20
6.712015791767018
 30
0.0
 11
3.755722868677408
 21
6.712015791767018
 31
0.0
  0
LINE
  5
524
330
14
100
AcDbEntity
 67
     1
  8
0
100
AcDbLine
 10
1.152334828517495
 20
7.851927840779891
 30
0.0
 11
3.209011380243828
 21
7.851927840779891
 31
0.0
  0
LINE
  5
525
330
14
100
AcDbEntity
 67
     1
  8
0
100
AcDbLine
 10
3.209011380243828
 20
7.861072133478294
 30
0.0
 11
1.152334828517495
 21
7.861072133478294
 31
0.0
  0
LINE
  5
526
330
14
100
AcDbEntity
 67
     1
  8
0
100
AcDbLine
 10
3.401786066074718
 20
7.659153154949005
 30
0.0
 11
3.401786066074716
 21
5.602476603222672
 31
0.0
  0
LINE
  5
527
330
14
100
AcDbEntity
 67
     1
  8
0
100
AcDbLine
 10
3.410930358773118
 20
5.602476603222672
 30
0.0
 11
3.410930358773118
 21
7.659153154949003
 31
0.0
  0
LINE
  5
528
330
14
100
AcDbEntity
 67
     1
  8
0
100
AcDbLine
 10
3.434697435054177
 20
5.602476603222672
 30
0.0
 11
3.434697435054177
 21
7.659153154949003
 31
0.0
  0
LINE
  5
529
330
14
100
AcDbEntity
 67
     1
  8
0
100
AcDbLine
 10
3.458192806944849
 20
5.585740537250217
 30
0.0
 11
3.458192806944849
 21
7.674649512330907
 31
0.0
  0
LINE
  5
52A
330
14
100
AcDbEntity
 67
     1
  8
0
100
AcDbLine
 10
3.209011380243828
 20
7.884839209759353
 30
0.0
 11
1.152334828517495
 21
7.884839209759353
 31
0.0
  0
LINE
  5
52B
330
14
100
AcDbEntity
 67
     1
  8
0
100
AcDbLine
 10
3.224507737625731
 20
7.908334581650023
 30
0.0
 11
1.13559876254504
 21
7.908334581650023
 31
0.0
  0
LINE
  5
52C
330
14
100
AcDbEntity
 67
     1
  8
0
100
AcDbLine
 10
3.584023228885911
 20
7.674649512330907
 30
0.0
 11
3.584023228885911
 21
5.585740537250217
 31
0.0
  0
LINE
  5
52D
330
14
100
AcDbEntity
 67
     1
  8
0
100
AcDbLine
 10
1.13559876254504
 20
8.034165003591088
 30
0.0
 11
3.224507737625731
 21
8.034165003591088
 31
0.0
  0
LINE
  5
52E
330
14
100
AcDbEntity
 67
     1
  8
0
100
AcDbLine
 10
6.871729132767188
 20
5.226225045990037
 30
0.0
 11
8.01690994328991
 21
5.226225045990036
 31
0.0
  0
LINE
  5
52F
330
14
100
AcDbEntity
 67
     1
  8
0
100
AcDbLine
 10
7.197818025183817
 20
5.423850133901265
 30
0.0
 11
8.256438095312788
 21
5.451571076061846
 31
0.0
  0
LINE
  5
530
330
14
100
AcDbEntity
 67
     1
  8
0
100
AcDbLine
 10
6.191129116553952
 20
5.409701917391783
 30
0.0
 11
6.116746601120812
 21
5.409701917391783
 31
0.0
  0
LINE
  5
531
330
14
100
AcDbEntity
 67
     1
  8
0
100
AcDbLine
 10
6.871729132767188
 20
5.376790548474309
 30
0.0
 11
6.191129116553952
 21
5.400557624755371
 31
0.0
  0
LINE
  5
532
330
14
100
AcDbEntity
 67
     1
  8
0
100
AcDbLine
 10
6.116746601120812
 20
5.409701917391783
 30
0.0
 11
6.116746601120812
 21
7.851927840779891
 31
0.0
  0
LINE
  5
533
330
14
100
AcDbEntity
 67
     1
  8
0
100
AcDbLine
 10
6.191129116553952
 20
5.400557624755371
 30
0.0
 11
6.191129116553952
 21
7.861072133478294
 31
0.0
  0
LINE
  5
534
330
14
100
AcDbEntity
 67
     1
  8
0
100
AcDbLine
 10
6.871729132767188
 20
8.034165003591088
 30
0.0
 11
6.871729132767188
 21
5.226225045990037
 31
0.0
  0
LINE
  5
535
330
14
100
AcDbEntity
 67
     1
  8
0
100
AcDbLine
 10
8.364803166513661
 20
6.320267877152477
 30
0.0
 11
8.346982355524472
 21
6.320267877152477
 31
0.0
  0
LINE
  5
536
330
14
100
AcDbEntity
 67
     1
  8
0
100
AcDbLine
 10
8.346982355524472
 20
6.310588581765339
 30
0.0
 11
8.24842925176523
 21
6.311358056649013
 31
0.0
  0
LINE
  5
537
330
14
100
AcDbEntity
 67
     1
  8
0
100
AcDbLine
 10
7.107273764972133
 20
7.941186859299661
 30
0.0
 11
7.107273764972133
 21
7.524334845726437
 31
0.0
  0
LINE
  5
538
330
14
100
AcDbEntity
 67
     1
  8
0
100
AcDbLine
 10
7.107273764972133
 20
6.665836646768942
 30
0.0
 11
7.107273764972133
 21
5.319203190281462
 31
0.0
  0
LINE
  5
539
330
14
100
AcDbEntity
 67
     1
  8
0
100
AcDbLine
 10
7.727128060248303
 20
6.704577540223701
 30
0.0
 11
7.146014658426896
 21
6.704577540223701
 31
0.0
  0
LINE
  5
53A
330
14
100
AcDbEntity
 67
     1
  8
0
100
AcDbLine
 10
8.346982355524472
 20
6.949801467877771
 30
0.0
 11
8.24842925176523
 21
6.949031992994097
 31
0.0
  0
LINE
  5
53B
330
14
100
AcDbEntity
 67
     1
  8
0
100
AcDbLine
 10
8.364803166513661
 20
6.940122172428647
 30
0.0
 11
8.346982355524472
 21
6.940122172428647
 31
0.0
  0
LINE
  5
53C
330
14
100
AcDbEntity
 67
     1
  8
0
100
AcDbLine
 10
8.055650836744671
 20
5.264965939444795
 30
0.0
 11
8.055650836744671
 21
5.408573569107266
 31
0.0
  0
LINE
  5
53D
330
14
100
AcDbEntity
 67
     1
  8
0
100
AcDbLine
 10
7.146014658426896
 20
7.485593952271677
 30
0.0
 11
7.727128060248303
 21
7.485593952271677
 31
0.0
  0
LINE
  5
53E
330
14
100
AcDbEntity
 67
     1
  8
0
100
AcDbLine
 10
8.229210039422
 20
6.330727912987646
 30
0.0
 11
8.229210039422
 21
6.929662136655463
 31
0.0
  0
LINE
  5
53F
330
14
100
AcDbEntity
 67
     1
  8
0
100
AcDbLine
 10
8.346982355524472
 20
7.715872690573252
 30
0.0
 11
8.346982355524472
 21
6.940122172428647
 31
0.0
  0
LINE
  5
540
330
14
100
AcDbEntity
 67
     1
  8
0
100
AcDbLine
 10
8.346982355524472
 20
6.320267877152477
 30
0.0
 11
8.346982355524469
 21
5.544517359065332
 31
0.0
  0
LINE
  5
541
330
14
100
AcDbEntity
 67
     1
  8
0
100
AcDbLine
 10
8.384173613241042
 20
6.339638323879857
 30
0.0
 11
8.384173613241046
 21
6.920751725701268
 31
0.0
  0
LINE
  5
542
330
14
100
AcDbEntity
 67
     1
  8
0
100
AcDbLine
 10
7.19781802518846
 20
7.836539915684266
 30
0.0
 11
8.256438095308144
 21
7.808818973576856
 31
0.0
  0
LINE
  5
543
330
14
100
AcDbEntity
 67
     1
  8
0
100
AcDbLine
 10
6.871729132767188
 20
7.884839209759353
 30
0.0
 11
6.191129116553952
 21
7.861072133478294
 31
0.0
  0
LINE
  5
544
330
14
100
AcDbEntity
 67
     1
  8
0
100
AcDbLine
 10
6.116746601120812
 20
7.851927840779891
 30
0.0
 11
6.191129116553952
 21
7.851927840779891
 31
0.0
  0
LINE
  5
545
330
14
100
AcDbEntity
 67
     1
  8
0
100
AcDbLine
 10
6.871729132767188
 20
8.034165003591088
 30
0.0
 11
7.014295620680705
 21
8.034165003591088
 31
0.0
  0
LINE
  5
546
330
14
100
AcDbEntity
 67
     1
  8
0
100
AcDbLine
 10
0.3047807811355732
 20
1.311605879135282
 30
0.0
 11
0.3047807811355732
 21
1.427828559499563
 31
0.0
  0
LINE
  5
547
330
14
100
AcDbEntity
 67
     1
  8
0
100
AcDbLine
 10
0.7760832712848629
 20
2.804679912881755
 30
0.0
 11
0.7760832712848629
 21
1.597513672831414
 31
0.0
  0
LINE
  5
548
330
14
100
AcDbEntity
 67
     1
  8
0
100
AcDbLine
 10
0.97370835919609
 20
2.478591020465127
 30
0.0
 11
1.001429301356671
 21
1.419970950336157
 31
0.0
  0
LINE
  5
549
330
14
100
AcDbEntity
 67
     1
  8
0
100
AcDbLine
 10
0.9595601426866087
 20
3.559662444528131
 30
0.0
 11
0.9595601426866087
 21
3.48527992909499
 31
0.0
  0
LINE
  5
54A
330
14
100
AcDbEntity
 67
     1
  8
0
100
AcDbLine
 10
0.9266487737691342
 20
2.804679912881755
 30
0.0
 11
0.9504158500501953
 21
3.48527992909499
 31
0.0
  0
LINE
  5
54B
330
14
100
AcDbEntity
 67
     1
  8
0
100
AcDbLine
 10
3.265730915868076
 20
1.329426690124472
 30
0.0
 11
1.094375584360154
 21
1.329426690124472
 31
0.0
  0
LINE
  5
54C
330
14
100
AcDbEntity
 67
     1
  8
0
100
AcDbLine
 10
1.187046669052964
 20
1.311605879135282
 30
0.0
 11
1.187046669052964
 21
1.329426690124472
 31
0.0
  0
LINE
  5
54D
330
14
100
AcDbEntity
 67
     1
  8
0
100
AcDbLine
 10
3.545282335431148
 20
1.558772779376654
 30
0.0
 11
3.400051560223133
 21
1.558772779376654
 31
0.0
  0
LINE
  5
54E
330
14
100
AcDbEntity
 67
     1
  8
0
100
AcDbLine
 10
0.9600549400000451
 20
1.558772779376654
 30
0.0
 11
0.8148241647396226
 21
1.558772779376654
 31
0.0
  0
LINE
  5
54F
330
14
100
AcDbEntity
 67
     1
  8
0
100
AcDbLine
 10
1.851530473589016
 20
1.949280985400641
 30
0.0
 11
1.851530473589016
 21
2.53039438722205
 31
0.0
  0
LINE
  5
550
330
14
100
AcDbEntity
 67
     1
  8
0
100
AcDbLine
 10
3.491045084594484
 20
2.56913528067681
 30
0.0
 11
2.547316920036516
 21
2.56913528067681
 31
0.0
  0
LINE
  5
551
330
14
100
AcDbEntity
 67
     1
  8
0
100
AcDbLine
 10
1.812789580134256
 20
2.56913528067681
 30
0.0
 11
0.8690614155762883
 21
2.56913528067681
 31
0.0
  0
LINE
  5
552
330
14
100
AcDbEntity
 67
     1
  8
0
100
AcDbLine
 10
2.508576026581756
 20
2.53039438722205
 30
0.0
 11
2.508576026581756
 21
1.949280985400641
 31
0.0
  0
LINE
  5
553
330
14
100
AcDbEntity
 67
     1
  8
0
100
AcDbLine
 10
3.584023228885911
 20
2.804679912881755
 30
0.0
 11
0.7760832712848629
 21
2.804679912881755
 31
0.0
  0
LINE
  5
554
330
14
100
AcDbEntity
 67
     1
  8
0
100
AcDbLine
 10
3.173059831117811
 20
1.311605879135282
 30
0.0
 11
3.173059831117811
 21
1.329426690124472
 31
0.0
  0
LINE
  5
555
330
14
100
AcDbEntity
 67
     1
  8
0
100
AcDbLine
 10
0.9504158500501953
 20
3.48527992909499
 30
0.0
 11
3.410930358773118
 21
3.48527992909499
 31
0.0
  0
LINE
  5
556
330
14
100
AcDbEntity
 67
     1
  8
0
100
AcDbLine
 10
0.9595601426866087
 20
3.559662444528131
 30
0.0
 11
3.401786066074716
 21
3.559662444528131
 31
0.0
  0
LINE
  5
557
330
14
100
AcDbEntity
 67
     1
  8
0
100
AcDbLine
 10
3.401786066074716
 20
3.559662444528131
 30
0.0
 11
3.401786066074716
 21
3.48527992909499
 31
0.0
  0
LINE
  5
558
330
14
100
AcDbEntity
 67
     1
  8
0
100
AcDbLine
 10
3.386398140979089
 20
2.478591020460481
 30
0.0
 11
3.358677198871681
 21
1.4199709503408
 31
0.0
  0
LINE
  5
559
330
14
100
AcDbEntity
 67
     1
  8
0
100
AcDbLine
 10
3.434697435054177
 20
2.804679912881755
 30
0.0
 11
3.410930358773118
 21
3.48527992909499
 31
0.0
  0
LINE
  5
55A
330
14
100
AcDbEntity
 67
     1
  8
0
100
AcDbLine
 10
3.584023228885911
 20
2.804679912881755
 30
0.0
 11
3.584023228885911
 21
1.597513672831414
 31
0.0
  0
LINE
  5
55B
330
14
100
AcDbEntity
 67
     1
  8
0
100
AcDbLine
 10
4.039278990348782
 20
1.311605879135282
 30
0.0
 11
4.039278990348782
 21
1.427828559499563
 31
0.0
  0
LINE
  5
55C
330
14
100
AcDbEntity
 67
     1
  8
0
100
AcDbLine
 10
10.27245578877117
 20
7.674649512330907
 30
0.0
 11
10.27245578877117
 21
6.886883158459625
 31
0.0
  0
LINE
  5
55D
330
14
100
AcDbEntity
 67
     1
  8
0
100
AcDbLine
 10
10.27245578877117
 20
6.712015791767018
 30
0.0
 11
10.27245578877117
 21
6.548374257814107
 31
0.0
  0
LINE
  5
55E
330
14
100
AcDbEntity
 67
     1
  8
0
100
AcDbLine
 10
10.27245578877117
 20
6.373506891183485
 30
0.0
 11
10.27245578877117
 21
5.585740537250217
 31
0.0
  0
LINE
  5
55F
330
14
100
AcDbEntity
 67
     1
  8
0
100
AcDbLine
 10
10.63197128003135
 20
5.226225045990037
 30
0.0
 11
12.72088025511204
 21
5.226225045990037
 31
0.0
  0
LINE
  5
560
330
14
100
AcDbEntity
 67
     1
  8
0
100
AcDbLine
 10
10.46770989178316
 20
7.674649512330907
 30
0.0
 11
10.46770989178316
 21
7.485593952271677
 31
0.0
  0
LINE
  5
561
330
14
100
AcDbEntity
 67
     1
  8
0
100
AcDbLine
 10
10.46770989178316
 20
6.320267877152477
 30
0.0
 11
10.46770989178316
 21
5.585740537250217
 31
0.0
  0
LINE
  5
562
330
14
100
AcDbEntity
 67
     1
  8
0
100
AcDbLine
 10
10.50017280374222
 20
7.674649512330907
 30
0.0
 11
10.50017280374222
 21
6.949801467877771
 31
0.0
  0
LINE
  5
563
330
14
100
AcDbEntity
 67
     1
  8
0
100
AcDbLine
 10
10.50017280374222
 20
6.310588581765339
 30
0.0
 11
10.50017280374222
 21
5.585740537250217
 31
0.0
  0
LINE
  5
564
330
14
100
AcDbEntity
 67
     1
  8
0
100
AcDbLine
 10
10.63197128003135
 20
5.421479149002032
 30
0.0
 11
11.34790299107532
 21
5.421479149002032
 31
0.0
  0
LINE
  5
565
330
14
100
AcDbEntity
 67
     1
  8
0
100
AcDbLine
 10
12.00494854406807
 20
5.421479149002032
 30
0.0
 11
12.72088025511204
 21
5.421479149002032
 31
0.0
  0
LINE
  5
566
330
14
100
AcDbEntity
 67
     1
  8
0
100
AcDbLine
 10
11.34790299107532
 20
5.437710604981557
 30
0.0
 11
11.35508028581989
 21
5.439498989564762
 31
0.0
  0
LINE
  5
567
330
14
100
AcDbEntity
 67
     1
  8
0
100
AcDbLine
 10
11.35508028581989
 20
5.439498989564762
 30
0.0
 11
11.37634079629348
 21
5.44121171504261
 31
0.0
  0
LINE
  5
568
330
14
100
AcDbEntity
 67
     1
  8
0
100
AcDbLine
 10
11.37634079629348
 20
5.44121171504261
 30
0.0
 11
11.4106257478247
 21
5.442766425217988
 31
0.0
  0
LINE
  5
569
330
14
100
AcDbEntity
 67
     1
  8
0
100
AcDbLine
 10
11.4106257478247
 20
5.442766425217988
 30
0.0
 11
11.45670060729642
 21
5.444105980558278
 31
0.0
  0
LINE
  5
56A
330
14
100
AcDbEntity
 67
     1
  8
0
100
AcDbLine
 10
11.45670060729642
 20
5.444105980558278
 30
0.0
 11
11.51210542250207
 21
5.445159845611745
 31
0.0
  0
LINE
  5
56B
330
14
100
AcDbEntity
 67
     1
  8
0
100
AcDbLine
 10
11.51210542250207
 20
5.445159845611745
 30
0.0
 11
11.57503738844413
 21
5.445893343497632
 31
0.0
  0
LINE
  5
56C
330
14
100
AcDbEntity
 67
     1
  8
0
100
AcDbLine
 10
11.57503738844413
 20
5.445893343497632
 30
0.0
 11
11.64197771960639
 21
5.44626585237463
 31
0.0
  0
LINE
  5
56D
330
14
100
AcDbEntity
 67
     1
  8
0
100
AcDbLine
 10
11.64197771960639
 20
5.44626585237463
 30
0.0
 11
11.71087381559898
 21
5.44626585237463
 31
0.0
  0
LINE
  5
56E
330
14
100
AcDbEntity
 67
     1
  8
0
100
AcDbLine
 10
11.71087381559898
 20
5.44626585237463
 30
0.0
 11
11.77781414676124
 21
5.445893343497632
 31
0.0
  0
LINE
  5
56F
330
14
100
AcDbEntity
 67
     1
  8
0
100
AcDbLine
 10
11.77781414676124
 20
5.445893343497632
 30
0.0
 11
11.84074611264132
 21
5.445159845611745
 31
0.0
  0
LINE
  5
570
330
14
100
AcDbEntity
 67
     1
  8
0
100
AcDbLine
 10
11.84074611264132
 20
5.445159845611745
 30
0.0
 11
11.89615092790895
 21
5.444105980558278
 31
0.0
  0
LINE
  5
571
330
14
100
AcDbEntity
 67
     1
  8
0
100
AcDbLine
 10
11.89615092790895
 20
5.444105980558278
 30
0.0
 11
11.94222578738068
 21
5.442766425217988
 31
0.0
  0
LINE
  5
572
330
14
100
AcDbEntity
 67
     1
  8
0
100
AcDbLine
 10
11.94222578738068
 20
5.442766425217988
 30
0.0
 11
11.9765107389119
 21
5.44121171504261
 31
0.0
  0
LINE
  5
573
330
14
100
AcDbEntity
 67
     1
  8
0
100
AcDbLine
 10
11.9765107389119
 20
5.44121171504261
 30
0.0
 11
11.9977712493235
 21
5.439498989564762
 31
0.0
  0
LINE
  5
574
330
14
100
AcDbEntity
 67
     1
  8
0
100
AcDbLine
 10
11.9977712493235
 20
5.439498989564762
 30
0.0
 11
12.00494854406807
 21
5.437710604981557
 31
0.0
  0
LINE
  5
575
330
14
100
AcDbEntity
 67
     1
  8
0
100
AcDbLine
 10
10.63197128003135
 20
5.453942060961082
 30
0.0
 11
12.72088025511204
 21
5.453942060961082
 31
0.0
  0
LINE
  5
576
330
14
100
AcDbEntity
 67
     1
  8
0
100
AcDbLine
 10
10.68341918653927
 20
6.940122172428647
 30
0.0
 11
10.68341918653927
 21
6.320267877152477
 31
0.0
  0
LINE
  5
577
330
14
100
AcDbEntity
 67
     1
  8
0
100
AcDbLine
 10
10.48394134776269
 20
7.485593952271677
 30
0.0
 11
10.48593667683893
 21
7.47808762746186
 31
0.0
  0
LINE
  5
578
330
14
100
AcDbEntity
 67
     1
  8
0
100
AcDbLine
 10
10.48593667683893
 20
7.47808762746186
 30
0.0
 11
10.48785519592634
 21
7.455858835961179
 31
0.0
  0
LINE
  5
579
330
14
100
AcDbEntity
 67
     1
  8
0
100
AcDbLine
 10
10.48785519592634
 20
7.455858835961179
 30
0.0
 11
10.48962323484605
 21
7.419762891095238
 31
0.0
  0
LINE
  5
57A
330
14
100
AcDbEntity
 67
     1
  8
0
100
AcDbLine
 10
10.48962323484605
 20
7.419762891095238
 30
0.0
 11
10.49117273867925
 21
7.371192068981626
 31
0.0
  0
LINE
  5
57B
330
14
100
AcDbEntity
 67
     1
  8
0
100
AcDbLine
 10
10.49117273867925
 20
7.371192068981626
 30
0.0
 11
10.49244429259415
 21
7.312012559864331
 31
0.0
  0
LINE
  5
57C
330
14
100
AcDbEntity
 67
     1
  8
0
100
AcDbLine
 10
10.49244429259415
 20
7.312012559864331
 30
0.0
 11
10.49338901791831
 21
7.244504005294285
 31
0.0
  0
LINE
  5
57D
330
14
100
AcDbEntity
 67
     1
  8
0
100
AcDbLine
 10
10.49338901791831
 20
7.244504005294285
 30
0.0
 11
10.49397074968678
 21
7.171256511569696
 31
0.0
  0
LINE
  5
57E
330
14
100
AcDbEntity
 67
     1
  8
0
100
AcDbLine
 10
10.49397074968678
 20
7.171256511569696
 30
0.0
 11
10.49416716502483
 21
7.095085746247691
 31
0.0
  0
LINE
  5
57F
330
14
100
AcDbEntity
 67
     1
  8
0
100
AcDbLine
 10
10.49416716502483
 20
7.095085746247691
 30
0.0
 11
10.49397074968678
 21
7.01891498098767
 31
0.0
  0
LINE
  5
580
330
14
100
AcDbEntity
 67
     1
  8
0
100
AcDbLine
 10
10.49397074968678
 20
7.01891498098767
 30
0.0
 11
10.49340582563945
 21
6.947783793674041
 31
0.0
  0
LINE
  5
581
330
14
100
AcDbEntity
 67
     1
  8
0
100
AcDbLine
 10
11.34790299107532
 20
5.226225045990037
 30
0.0
 11
11.34790299107532
 21
5.437710604981557
 31
0.0
  0
LINE
  5
582
330
14
100
AcDbEntity
 67
     1
  8
0
100
AcDbLine
 10
10.68341918653927
 20
6.320267877152477
 30
0.0
 11
10.46770989178316
 21
6.320267877152477
 31
0.0
  0
LINE
  5
583
330
14
100
AcDbEntity
 67
     1
  8
0
100
AcDbLine
 10
10.12679002938127
 20
6.548374257814107
 30
0.0
 11
10.28175360320031
 21
6.548374257814107
 31
0.0
  0
LINE
  5
584
330
14
100
AcDbEntity
 67
     1
  8
0
100
AcDbLine
 10
10.28175360320031
 20
6.712015791767018
 30
0.0
 11
10.12679002938127
 21
6.712015791767018
 31
0.0
  0
LINE
  5
585
330
14
100
AcDbEntity
 67
     1
  8
0
100
AcDbLine
 10
12.00494854406807
 20
5.226225045990037
 30
0.0
 11
12.00494854406807
 21
5.437710604981557
 31
0.0
  0
LINE
  5
586
330
14
100
AcDbEntity
 67
     1
  8
0
100
AcDbLine
 10
10.46770989178316
 20
6.940122172428647
 30
0.0
 11
10.68341918653927
 21
6.940122172428647
 31
0.0
  0
LINE
  5
587
330
14
100
AcDbEntity
 67
     1
  8
0
100
AcDbLine
 10
12.86891018744269
 20
7.485593952271677
 30
0.0
 11
12.86691485836645
 21
7.47808762746186
 31
0.0
  0
LINE
  5
588
330
14
100
AcDbEntity
 67
     1
  8
0
100
AcDbLine
 10
12.86691485836645
 20
7.47808762746186
 30
0.0
 11
12.86499633927903
 21
7.455858835961179
 31
0.0
  0
LINE
  5
589
330
14
100
AcDbEntity
 67
     1
  8
0
100
AcDbLine
 10
12.86499633927903
 20
7.455858835961179
 30
0.0
 11
12.86322830035932
 21
7.419762891095238
 31
0.0
  0
LINE
  5
58A
330
14
100
AcDbEntity
 67
     1
  8
0
100
AcDbLine
 10
12.86322830035932
 20
7.419762891095238
 30
0.0
 11
12.86167879652612
 21
7.371192068981626
 31
0.0
  0
LINE
  5
58B
330
14
100
AcDbEntity
 67
     1
  8
0
100
AcDbLine
 10
12.86167879652612
 20
7.371192068981626
 30
0.0
 11
12.86040724261123
 21
7.312012559864331
 31
0.0
  0
LINE
  5
58C
330
14
100
AcDbEntity
 67
     1
  8
0
100
AcDbLine
 10
12.86040724261123
 20
7.312012559864331
 30
0.0
 11
12.85946251728706
 21
7.244504005294285
 31
0.0
  0
LINE
  5
58D
330
14
100
AcDbEntity
 67
     1
  8
0
100
AcDbLine
 10
12.85946251728706
 20
7.244504005294285
 30
0.0
 11
12.8588807855186
 21
7.171256511569696
 31
0.0
  0
LINE
  5
58E
330
14
100
AcDbEntity
 67
     1
  8
0
100
AcDbLine
 10
12.8588807855186
 20
7.171256511569696
 30
0.0
 11
12.85868437018055
 21
7.095085746247691
 31
0.0
  0
LINE
  5
58F
330
14
100
AcDbEntity
 67
     1
  8
0
100
AcDbLine
 10
12.85868437018055
 20
7.095085746247691
 30
0.0
 11
12.8588807855186
 21
7.01891498098767
 31
0.0
  0
LINE
  5
590
330
14
100
AcDbEntity
 67
     1
  8
0
100
AcDbLine
 10
12.8588807855186
 20
7.01891498098767
 30
0.0
 11
12.8595065581964
 21
6.940122172428647
 31
0.0
  0
LINE
  5
591
330
14
100
AcDbEntity
 67
     1
  8
0
100
AcDbLine
 10
13.08039574637222
 20
7.485593952271677
 30
0.0
 11
12.86891018744269
 21
7.485593952271677
 31
0.0
  0
LINE
  5
592
330
14
100
AcDbEntity
 67
     1
  8
0
100
AcDbLine
 10
10.27245578877117
 20
7.485593952271677
 30
0.0
 11
10.48394134776269
 21
7.485593952271677
 31
0.0
  0
LINE
  5
593
330
14
100
AcDbEntity
 67
     1
  8
0
100
AcDbLine
 10
12.85267873146316
 20
5.585740537250217
 30
0.0
 11
12.85267873146316
 21
6.320267877152477
 31
0.0
  0
LINE
  5
594
330
14
100
AcDbEntity
 67
     1
  8
0
100
AcDbLine
 10
12.85267873146316
 20
6.940122172428647
 30
0.0
 11
12.85267873146316
 21
7.674649512330907
 31
0.0
  0
LINE
  5
595
330
14
100
AcDbEntity
 67
     1
  8
0
100
AcDbLine
 10
12.88514164336023
 20
5.585740537250217
 30
0.0
 11
12.88514164336023
 21
6.320267877152477
 31
0.0
  0
LINE
  5
596
330
14
100
AcDbEntity
 67
     1
  8
0
100
AcDbLine
 10
12.88514164336023
 20
7.485593952271677
 30
0.0
 11
12.88514164336023
 21
7.674649512330907
 31
0.0
  0
LINE
  5
597
330
14
100
AcDbEntity
 67
     1
  8
0
100
AcDbLine
 10
12.72088025511204
 20
7.80644798868203
 30
0.0
 11
10.63197128003135
 21
7.80644798868203
 31
0.0
  0
LINE
  5
598
330
14
100
AcDbEntity
 67
     1
  8
0
100
AcDbLine
 10
12.72088025511204
 20
7.838910900579093
 30
0.0
 11
10.63197128003135
 21
7.838910900579093
 31
0.0
  0
LINE
  5
599
330
14
100
AcDbEntity
 67
     1
  8
0
100
AcDbLine
 10
13.08039574637222
 20
5.585740537250217
 30
0.0
 11
13.08039574637222
 21
6.369943149078955
 31
0.0
  0
LINE
  5
59A
330
14
100
AcDbEntity
 67
     1
  8
0
100
AcDbLine
 10
13.08039574637222
 20
6.890446900564156
 30
0.0
 11
13.08039574637222
 21
7.674649512330907
 31
0.0
  0
LINE
  5
59B
330
14
100
AcDbEntity
 67
     1
  8
0
100
AcDbLine
 10
12.72088025511204
 20
8.034165003591088
 30
0.0
 11
10.63197128003135
 21
8.034165003591088
 31
0.0
  0
ARC
  5
59C
330
14
100
AcDbEntity
 67
     1
  8
0
100
AcDbCircle
 10
3.209011380243828
 20
7.659153154949003
 30
0.0
 40
0.2256860547483634
100
AcDbArc
 50
0.0
 51
90.0
  0
ARC
  5
59D
330
14
100
AcDbEntity
 67
     1
  8
0
100
AcDbCircle
 10
1.152334828517495
 20
7.659153154949003
 30
0.0
 40
0.2256860547483634
100
AcDbArc
 50
90.0
 51
180.0
  0
ARC
  5
59E
330
14
100
AcDbEntity
 67
     1
  8
0
100
AcDbCircle
 10
1.152334828517495
 20
5.602476603222672
 30
0.0
 40
0.2256860547483634
100
AcDbArc
 50
180.0
 51
270.0
  0
ARC
  5
59F
330
14
100
AcDbEntity
 67
     1
  8
0
100
AcDbCircle
 10
3.209011380243828
 20
5.602476603222672
 30
0.0
 40
0.2256860547483634
100
AcDbArc
 50
270.0
 51
0.0
  0
CIRCLE
  5
5A0
330
14
100
AcDbEntity
 67
     1
  8
0
100
AcDbCircle
 10
3.226987154806837
 20
7.677128929512012
 30
0.0
 40
0.1066149387875012
  0
CIRCLE
  5
5A1
330
14
100
AcDbEntity
 67
     1
  8
0
100
AcDbCircle
 10
3.226987154806837
 20
5.584500828659664
 30
0.0
 40
0.1066149387875012
  0
CIRCLE
  5
5A2
330
14
100
AcDbEntity
 67
     1
  8
0
100
AcDbCircle
 10
1.134359053954488
 20
7.677128929512012
 30
0.0
 40
0.1066149387875012
  0
CIRCLE
  5
5A3
330
14
100
AcDbEntity
 67
     1
  8
0
100
AcDbCircle
 10
1.134359053954488
 20
5.584500828659664
 30
0.0
 40
0.1066149387875012
  0
ARC
  5
5A4
330
14
100
AcDbEntity
 67
     1
  8
0
100
AcDbCircle
 10
3.209011380243828
 20
5.602476603222672
 30
0.0
 40
0.2019189784673032
100
AcDbArc
 50
270.0
 51
0.0
  0
ARC
  5
5A5
330
14
100
AcDbEntity
 67
     1
  8
0
100
AcDbCircle
 10
1.152334828517495
 20
5.602476603222672
 30
0.0
 40
0.2019189784673032
100
AcDbArc
 50
180.0
 51
270.0
  0
ARC
  5
5A6
330
14
100
AcDbEntity
 67
     1
  8
0
100
AcDbCircle
 10
1.152334828517495
 20
7.659153154949003
 30
0.0
 40
0.2019189784673032
100
AcDbArc
 50
90.0
 51
180.0
  0
ARC
  5
5A7
330
14
100
AcDbEntity
 67
     1
  8
0
100
AcDbCircle
 10
3.209011380243828
 20
7.659153154949003
 30
0.0
 40
0.2019189784673032
100
AcDbArc
 50
0.0
 51
90.0
  0
ARC
  5
5A8
330
14
100
AcDbEntity
 67
     1
  8
0
100
AcDbCircle
 10
1.13559876254504
 20
5.585740537250217
 30
0.0
 40
0.3595154912601785
100
AcDbArc
 50
180.0
 51
270.0
  0
ARC
  5
5A9
330
14
100
AcDbEntity
 67
     1
  8
0
100
AcDbCircle
 10
1.13559876254504
 20
7.674649512330907
 30
0.0
 40
0.3595154912601785
100
AcDbArc
 50
90.0
 51
180.0
  0
ARC
  5
5AA
330
14
100
AcDbEntity
 67
     1
  8
0
100
AcDbCircle
 10
3.224507737625731
 20
7.674649512330907
 30
0.0
 40
0.3595154912601785
100
AcDbArc
 50
0.0
 51
90.0
  0
ARC
  5
5AB
330
14
100
AcDbEntity
 67
     1
  8
0
100
AcDbCircle
 10
3.224507737625731
 20
5.585740537250217
 30
0.0
 40
0.3595154912601785
100
AcDbArc
 50
270.0
 51
0.0
  0
ARC
  5
5AC
330
14
100
AcDbEntity
 67
     1
  8
0
100
AcDbCircle
 10
3.224507737625731
 20
5.585740537250217
 30
0.0
 40
0.2336850693191161
100
AcDbArc
 50
270.0
 51
0.0
  0
ARC
  5
5AD
330
14
100
AcDbEntity
 67
     1
  8
0
100
AcDbCircle
 10
3.224507737625731
 20
7.674649512330907
 30
0.0
 40
0.2336850693191161
100
AcDbArc
 50
0.0
 51
90.0
  0
ARC
  5
5AE
330
14
100
AcDbEntity
 67
     1
  8
0
100
AcDbCircle
 10
1.13559876254504
 20
7.674649512330907
 30
0.0
 40
0.2336850693191161
100
AcDbArc
 50
90.0
 51
180.0
  0
ARC
  5
5AF
330
14
100
AcDbEntity
 67
     1
  8
0
100
AcDbCircle
 10
1.13559876254504
 20
5.585740537250217
 30
0.0
 40
0.2336850693191161
100
AcDbArc
 50
180.0
 51
270.0
  0
ARC
  5
5B0
330
14
100
AcDbEntity
 67
     1
  8
0
100
AcDbCircle
 10
0.604383631493363
 20
6.630195024790562
 30
0.0
 40
0.0818207669764544
100
AcDbArc
 50
90.0
 51
270.0
  0
ARC
  5
5B1
330
14
100
AcDbEntity
 67
     1
  8
0
100
AcDbCircle
 10
0.7593472053124053
 20
6.630195024790562
 30
0.0
 40
0.0818207669764544
100
AcDbArc
 50
270.0
 51
281.9364852530999
  0
ARC
  5
5B2
330
14
100
AcDbEntity
 67
     1
  8
0
100
AcDbCircle
 10
0.7593472053124053
 20
6.630195024790562
 30
0.0
 40
0.0818207669764544
100
AcDbArc
 50
78.06351474689996
 51
90.0
  0
ARC
  5
5B3
330
14
100
AcDbEntity
 67
     1
  8
0
100
AcDbCircle
 10
3.755722868677408
 20
6.630195024790562
 30
0.0
 40
0.0818207669764544
100
AcDbArc
 50
270.0
 51
90.0
  0
ARC
  5
5B4
330
14
100
AcDbEntity
 67
     1
  8
0
100
AcDbCircle
 10
3.600759294858366
 20
6.630195024790562
 30
0.0
 40
0.0818207669764544
100
AcDbArc
 50
258.0635147469001
 51
270.0
  0
ARC
  5
5B5
330
14
100
AcDbEntity
 67
     1
  8
0
100
AcDbCircle
 10
3.600759294858366
 20
6.630195024790562
 30
0.0
 40
0.0818207669764544
100
AcDbArc
 50
90.0
 51
101.9364852530999
  0
ARC
  5
5B6
330
14
100
AcDbEntity
 67
     1
  8
0
100
AcDbCircle
 10
7.727128060248303
 20
7.095085746247691
 30
0.0
 40
0.3905082060239871
100
AcDbArc
 50
270.0
 51
90.0
  0
CIRCLE
  5
5B7
330
14
100
AcDbEntity
 67
     1
  8
0
100
AcDbCircle
 10
7.727128060248303
 20
7.095085746247691
 30
0.0
 40
0.299143846749639
  0
ARC
  5
5B8
330
14
100
AcDbEntity
 67
     1
  8
0
100
AcDbCircle
 10
2.180053250085387
 20
1.949280985400641
 30
0.0
 40
0.3285227764963699
100
AcDbArc
 50
180.0
 51
0.0
  0
ARC
  5
5B9
330
14
100
AcDbEntity
 67
     1
  8
0
100
AcDbCircle
 10
10.63197128003135
 20
7.674649512330907
 30
0.0
 40
0.3595154912601785
100
AcDbArc
 50
90.0
 51
180.0
  0
ARC
  5
5BA
330
14
100
AcDbEntity
 67
     1
  8
0
100
AcDbCircle
 10
12.72088025511204
 20
7.674649512330907
 30
0.0
 40
0.3595154912601785
100
AcDbArc
 50
0.0
 51
90.0
  0
ARC
  5
5BB
330
14
100
AcDbEntity
 67
     1
  8
0
100
AcDbCircle
 10
10.12679002938127
 20
6.630195024790562
 30
0.0
 40
0.0818207669764544
100
AcDbArc
 50
90.0
 51
270.0
  0
ARC
  5
5BC
330
14
100
AcDbEntity
 67
     1
  8
0
100
AcDbCircle
 10
10.63197128003135
 20
5.585740537250217
 30
0.0
 40
0.3595154912601785
100
AcDbArc
 50
180.0
 51
270.0
  0
ARC
  5
5BD
330
14
100
AcDbEntity
 67
     1
  8
0
100
AcDbCircle
 10
10.28175360320031
 20
6.630195024790562
 30
0.0
 40
0.0818207669764544
100
AcDbArc
 50
270.0
 51
90.0
  0
ARC
  5
5BE
330
14
100
AcDbEntity
 67
     1
  8
0
100
AcDbCircle
 10
12.72088025511204
 20
5.585740537250217
 30
0.0
 40
0.3595154912601785
100
AcDbArc
 50
270.0
 51
0.0
  0
ARC
  5
5BF
330
14
100
AcDbEntity
 67
     1
  8
0
100
AcDbCircle
 10
10.00467097434447
 20
6.630195024790562
 30
0.0
 40
0.1921548315356126
100
AcDbArc
 50
106.6027247966999
 51
253.3972752032999
  0
CIRCLE
  5
5C0
330
14
100
AcDbEntity
 67
     1
  8
0
100
AcDbCircle
 10
11.67642576757169
 20
6.475231450971518
 30
0.0
 40
0.3378205909255126
  0
ARC
  5
5C1
330
14
100
AcDbEntity
 67
     1
  8
0
100
AcDbCircle
 10
10.63197128003135
 20
5.585740537250217
 30
0.0
 40
0.164261388248185
100
AcDbArc
 50
180.0
 51
270.0
  0
ARC
  5
5C2
330
14
100
AcDbEntity
 67
     1
  8
0
100
AcDbCircle
 10
12.72088025511204
 20
5.585740537250217
 30
0.0
 40
0.164261388248185
100
AcDbArc
 50
270.0
 51
0.0
  0
ARC
  5
5C3
330
14
100
AcDbEntity
 67
     1
  8
0
100
AcDbCircle
 10
12.72088025511204
 20
7.674649512330907
 30
0.0
 40
0.164261388248185
100
AcDbArc
 50
0.0
 51
90.0
  0
ARC
  5
5C4
330
14
100
AcDbEntity
 67
     1
  8
0
100
AcDbCircle
 10
10.63197128003135
 20
7.674649512330907
 30
0.0
 40
0.164261388248185
100
AcDbArc
 50
90.0
 51
180.0
  0
CIRCLE
  5
5C5
330
14
100
AcDbEntity
 67
     1
  8
0
100
AcDbCircle
 10
11.67642576757169
 20
6.475231450971518
 30
0.0
 40
0.3186051077719513
  0
ARC
  5
5C6
330
14
100
AcDbEntity
 67
     1
  8
0
100
AcDbCircle
 10
10.63197128003135
 20
7.674649512330907
 30
0.0
 40
0.1317984763511204
100
AcDbArc
 50
90.0
 51
180.0
  0
ARC
  5
5C7
330
14
100
AcDbEntity
 67
     1
  8
0
100
AcDbCircle
 10
12.72088025511204
 20
7.674649512330907
 30
0.0
 40
0.1317984763511204
100
AcDbArc
 50
0.0
 51
90.0
  0
CIRCLE
  5
5C8
330
14
100
AcDbEntity
 67
     1
  8
0
100
AcDbCircle
 10
11.67642576757169
 20
6.475231450971518
 30
0.0
 40
0.2572395325396104
  0
ARC
  5
5C9
330
14
100
AcDbEntity
 67
     1
  8
0
100
AcDbCircle
 10
10.63197128003135
 20
5.585740537250217
 30
0.0
 40
0.1317984763511204
100
AcDbArc
 50
180.0
 51
270.0
  0
ARC
  5
5CA
330
14
100
AcDbEntity
 67
     1
  8
0
100
AcDbCircle
 10
12.72088025511204
 20
5.585740537250217
 30
0.0
 40
0.1317984763511204
100
AcDbArc
 50
270.0
 51
0.0
  0
CIRCLE
  5
5CB
330
14
100
AcDbEntity
 67
     1
  8
0
100
AcDbCircle
 10
2.180053250085387
 20
1.949280985400641
 30
0.0
 40
0.2326431358697211
  0
ARC
  5
5CC
330
14
100
AcDbEntity
 67
     1
  8
0
100
AcDbCircle
 10
1.152334828517495
 20
7.659153154949003
 30
0.0
 40
0.1927746858308888
100
AcDbArc
 50
90.0
 51
180.0
  0
ARC
  5
5CD
330
14
100
AcDbEntity
 67
     1
  8
0
100
AcDbCircle
 10
3.209011380243828
 20
7.659153154949005
 30
0.0
 40
0.1927746858308888
100
AcDbArc
 50
0.0
 51
90.0
  0
ARC
  5
5CE
330
14
100
AcDbEntity
 67
     1
  8
0
100
AcDbCircle
 10
3.209011380243828
 20
5.602476603222672
 30
0.0
 40
0.1927746858308888
100
AcDbArc
 50
270.0
 51
0.0
  0
ARC
  5
5CF
330
14
100
AcDbEntity
 67
     1
  8
0
100
AcDbCircle
 10
1.152334828517497
 20
5.602476603222672
 30
0.0
 40
0.1927746858308888
100
AcDbArc
 50
180.0
 51
270.0
  0
ARC
  5
5D0
330
14
100
AcDbEntity
 67
     1
  8
0
100
AcDbCircle
 10
8.254004211233045
 20
5.544517359065332
 30
0.0
 40
0.0929781442914255
100
AcDbArc
 50
271.5000000017642
 51
0.0
  0
ARC
  5
5D1
330
14
100
AcDbEntity
 67
     1
  8
0
100
AcDbCircle
 10
8.254004211233045
 20
7.715872690573252
 30
0.0
 40
0.0929781442914255
100
AcDbArc
 50
0.0
 51
88.5000000010986
  0
ARC
  5
5D2
330
14
100
AcDbEntity
 67
     1
  8
0
100
AcDbCircle
 10
1.094375584360154
 20
1.422404834415898
 30
0.0
 40
0.0929781442914255
100
AcDbArc
 50
181.5000000017642
 51
270.0
  0
ARC
  5
5D3
330
14
100
AcDbEntity
 67
     1
  8
0
100
AcDbCircle
 10
3.265730915868076
 20
1.422404834415898
 30
0.0
 40
0.0929781442914255
100
AcDbArc
 50
270.0
 51
358.5000000010986
  0
ARC
  5
5D4
330
14
100
AcDbEntity
 67
     1
  8
0
100
AcDbCircle
 10
3.479344423982694
 20
2.476157136385385
 30
0.0
 40
0.0929781442914255
100
AcDbArc
 50
90.0
 51
178.5000000010985
  0
ARC
  5
5D5
330
14
100
AcDbEntity
 67
     1
  8
0
100
AcDbCircle
 10
0.8807620761926067
 20
2.476157136385385
 30
0.0
 40
0.0929781442914255
100
AcDbArc
 50
1.50000000176423
 51
90.0
  0
ARC
  5
5D6
330
14
100
AcDbEntity
 67
     1
  8
0
100
AcDbCircle
 10
3.491045084594484
 20
2.662113424968236
 30
0.0
 40
0.0929781442914255
100
AcDbArc
 50
270.0
 51
0.0
  0
ARC
  5
5D7
330
14
100
AcDbEntity
 67
     1
  8
0
100
AcDbCircle
 10
0.8690614155762883
 20
2.662113424968236
 30
0.0
 40
0.0929781442914255
100
AcDbArc
 50
180.0
 51
270.0
  0
ARC
  5
5D8
330
14
100
AcDbEntity
 67
     1
  8
0
100
AcDbCircle
 10
7.200251909263559
 20
7.92948619868787
 30
0.0
 40
0.0929781442914255
100
AcDbArc
 50
180.0
 51
268.5000000010985
  0
ARC
  5
5D9
330
14
100
AcDbEntity
 67
     1
  8
0
100
AcDbCircle
 10
7.200251909263559
 20
5.330903850897782
 30
0.0
 40
0.0929781442914255
100
AcDbArc
 50
91.50000000176417
 51
180.0
  0
ARC
  5
5DA
330
14
100
AcDbEntity
 67
     1
  8
0
100
AcDbCircle
 10
7.014295620680705
 20
5.319203190281462
 30
0.0
 40
0.0929781442914255
100
AcDbArc
 50
270.0
 51
0.0
  0
ARC
  5
5DB
330
14
100
AcDbEntity
 67
     1
  8
0
100
AcDbCircle
 10
7.014295620680705
 20
7.941186859299661
 30
0.0
 40
0.0929781442914255
100
AcDbArc
 50
0.0
 51
90.0
  0
ARC
  5
5DC
330
14
100
AcDbEntity
 67
     1
  8
0
100
AcDbCircle
 10
7.146014658426896
 20
7.524334845726437
 30
0.0
 40
0.0387408934547606
100
AcDbArc
 50
180.0
 51
270.0
  0
ARC
  5
5DD
330
14
100
AcDbEntity
 67
     1
  8
0
100
AcDbCircle
 10
7.146014658426896
 20
6.665836646768942
 30
0.0
 40
0.0387408934547606
100
AcDbArc
 50
90.0
 51
180.0
  0
ARC
  5
5DE
330
14
100
AcDbEntity
 67
     1
  8
0
100
AcDbCircle
 10
8.01690994328991
 20
5.264965939444795
 30
0.0
 40
0.0387408934547606
100
AcDbArc
 50
269.9999999999999
 51
0.0
  0
ARC
  5
5DF
330
14
100
AcDbEntity
 67
     1
  8
0
100
AcDbCircle
 10
0.8148241647396226
 20
1.597513672831414
 30
0.0
 40
0.0387408934547606
100
AcDbArc
 50
180.0
 51
270.0
  0
ARC
  5
5E0
330
14
100
AcDbEntity
 67
     1
  8
0
100
AcDbCircle
 10
3.545282335431148
 20
1.597513672831414
 30
0.0
 40
0.0387408934547606
100
AcDbArc
 50
270.0
 51
0.0
  0
ARC
  5
5E1
330
14
100
AcDbEntity
 67
     1
  8
0
100
AcDbCircle
 10
1.812789580134256
 20
2.53039438722205
 30
0.0
 40
0.0387408934547606
100
AcDbArc
 50
0.0
 51
90.0
  0
ARC
  5
5E2
330
14
100
AcDbEntity
 67
     1
  8
0
100
AcDbCircle
 10
2.547316920036516
 20
2.53039438722205
 30
0.0
 40
0.0387408934547606
100
AcDbArc
 50
90.0
 51
180.0
  0
ARC
  5
5E3
330
14
100
AcDbEntity
 67
     1
  8
0
100
AcDbCircle
 10
0.3241512278629539
 20
1.311605879135282
 30
0.0
 40
0.0193704467273803
100
AcDbArc
 50
180.0
 51
270.0
  0
ARC
  5
5E4
330
14
100
AcDbEntity
 67
     1
  8
0
100
AcDbCircle
 10
0.3241512278629539
 20
1.427828559499563
 30
0.0
 40
0.0193704467273803
100
AcDbArc
 50
90.0
 51
180.0
  0
ARC
  5
5E5
330
14
100
AcDbEntity
 67
     1
  8
0
100
AcDbCircle
 10
4.019908543621403
 20
1.427828559499563
 30
0.0
 40
0.0193704467273803
100
AcDbArc
 50
0.0
 51
90.0
  0
ARC
  5
5E6
330
14
100
AcDbEntity
 67
     1
  8
0
100
AcDbCircle
 10
1.167676222325582
 20
1.311605879135282
 30
0.0
 40
0.0193704467273803
100
AcDbArc
 50
270.0
 51
0.0
  0
ARC
  5
5E7
330
14
100
AcDbEntity
 67
     1
  8
0
100
AcDbCircle
 10
3.19243027784519
 20
1.311605879135282
 30
0.0
 40
0.0193704467273803
100
AcDbArc
 50
180.0
 51
270.0
  0
LINE
  5
5E8
330
14
100
AcDbEntity
 67
     1
  8
0
100
AcDbLine
 10
3.361323942304967
 20
1.521046004286516
 30
0.0
 11
3.358677198871681
 21
1.4199709503408
 31
0.0
  0
LINE
  5
5E9
330
14
100
AcDbEntity
 67
     1
  8
0
100
AcDbLine
 10
0.9987825579181615
 20
1.521046004288453
 30
0.0
 11
1.001429301356671
 21
1.419970950336157
 31
0.0
  0
ARC
  5
5EA
330
14
100
AcDbEntity
 67
     1
  8
0
100
AcDbCircle
 10
3.400051560223133
 20
1.520031885921893
 30
0.0
 40
0.0387408934547606
100
AcDbArc
 50
90.0
 51
178.5000000010985
  0
ARC
  5
5EB
330
14
100
AcDbEntity
 67
     1
  8
0
100
AcDbCircle
 10
0.9600549400000451
 20
1.520031885921893
 30
0.0
 40
0.0387408934547606
100
AcDbArc
 50
1.50000000176423
 51
90.0
  0
ARC
  5
5EC
330
14
100
AcDbEntity
 67
     1
  8
0
100
AcDbCircle
 10
8.094391730199433
 20
5.408573569107266
 30
0.0
 40
0.0387408934547606
100
AcDbArc
 50
91.50000000176417
 51
180.0
  0
ARC
  5
5ED
330
14
100
AcDbEntity
 67
     1
  8
0
100
AcDbCircle
 10
8.248580486149382
 20
6.929662136655463
 30
0.0
 40
0.0193704467273803
100
AcDbArc
 50
90.44734022327784
 51
180.0
  0
ARC
  5
5EE
330
14
100
AcDbEntity
 67
     1
  8
0
100
AcDbCircle
 10
8.248580486149382
 20
6.330727912987646
 30
0.0
 40
0.0193704467273803
100
AcDbArc
 50
180.0
 51
269.5526597767221
  0
ARC
  5
5EF
330
14
100
AcDbEntity
 67
     1
  8
0
100
AcDbCircle
 10
8.364803166513661
 20
6.920751725701268
 30
0.0
 40
0.0193704467273803
100
AcDbArc
 50
0.0
 51
90.0
  0
ARC
  5
5F0
330
14
100
AcDbEntity
 67
     1
  8
0
100
AcDbCircle
 10
8.364803166513661
 20
6.339638323879857
 30
0.0
 40
0.0193704467273803
100
AcDbArc
 50
270.0
 51
359.9999999999998
  0
LINE
  5
5F1
330
14
100
AcDbEntity
 67
     1
  8
0
100
AcDbLine
 10
3.023055091660978
 20
7.628160440185192
 30
0.0
 11
1.337051408509797
 21
7.628160440185192
 31
0.0
  0
LINE
  5
5F2
330
14
100
AcDbEntity
 67
     1
  8
0
100
AcDbLine
 10
1.337051408509797
 20
5.632291594825455
 30
0.0
 11
3.023055091660978
 21
5.632291594825455
 31
0.0
  0
LINE
  5
5F3
330
14
100
AcDbEntity
 67
     1
  8
0
100
AcDbLine
 10
1.728117483399531
 20
6.158299949796814
 30
0.0
 11
1.736485516385759
 21
6.154084940588938
 31
0.0
  0
LINE
  5
5F4
330
14
100
AcDbEntity
 67
     1
  8
0
100
AcDbLine
 10
1.736485516385759
 20
7.107048934146519
 30
0.0
 11
1.728117483399531
 21
7.103019881227224
 31
0.0
  0
LINE
  5
5F5
330
14
100
AcDbEntity
 67
     1
  8
0
100
AcDbLine
 10
2.803750641992269
 20
7.312034749594348
 30
0.0
 11
1.556355858178505
 21
7.312034749594348
 31
0.0
  0
LINE
  5
5F6
330
14
100
AcDbEntity
 67
     1
  8
0
100
AcDbLine
 10
1.556355858178505
 20
5.948355299986776
 30
0.0
 11
2.803812627421795
 21
5.948355299986776
 31
0.0
  0
LINE
  5
5F7
330
14
100
AcDbEntity
 67
     1
  8
0
100
AcDbLine
 10
1.354841226784221
 20
5.74690265402202
 30
0.0
 11
2.082426198579391
 21
5.74690265402202
 31
0.0
  0
LINE
  5
5F8
330
14
100
AcDbEntity
 67
     1
  8
0
100
AcDbLine
 10
3.005203287957022
 20
7.513487395559102
 30
0.0
 11
1.354841226784221
 21
7.513487395559102
 31
0.0
  0
LINE
  5
5F9
330
14
100
AcDbEntity
 67
     1
  8
0
100
AcDbLine
 10
1.38973902360827
 20
5.833682255360683
 30
0.0
 11
2.082426198579391
 21
5.833682255360683
 31
0.0
  0
LINE
  5
5FA
330
14
100
AcDbEntity
 67
     1
  8
0
100
AcDbLine
 10
2.970367476562504
 20
7.426707794220438
 30
0.0
 11
1.38973902360827
 21
7.426707794220438
 31
0.0
  0
LINE
  5
5FB
330
14
100
AcDbEntity
 67
     1
  8
0
100
AcDbLine
 10
1.591191669573024
 20
6.03513490132544
 30
0.0
 11
2.082426198579391
 21
6.03513490132544
 31
0.0
  0
LINE
  5
5FC
330
14
100
AcDbEntity
 67
     1
  8
0
100
AcDbLine
 10
2.768914830597747
 20
7.225255148255683
 30
0.0
 11
1.591191669573024
 21
7.225255148255683
 31
0.0
  0
LINE
  5
5FD
330
14
100
AcDbEntity
 67
     1
  8
0
100
AcDbLine
 10
1.182087834690754
 20
7.473196866366151
 30
0.0
 11
1.182087834690754
 21
5.787255168644498
 31
0.0
  0
LINE
  5
5FE
330
14
100
AcDbEntity
 67
     1
  8
0
100
AcDbLine
 10
1.707972218803056
 20
7.082874616630749
 30
0.0
 11
1.703757209595178
 21
7.074382612785465
 31
0.0
  0
LINE
  5
5FF
330
14
100
AcDbEntity
 67
     1
  8
0
100
AcDbLine
 10
1.498213525281599
 20
7.253954402126972
 30
0.0
 11
1.498213525281599
 21
6.00649763288368
 31
0.0
  0
LINE
  5
600
330
14
100
AcDbEntity
 67
     1
  8
0
100
AcDbLine
 10
1.296760879316845
 20
7.455407048091725
 30
0.0
 11
1.296760879316845
 21
5.805044986918924
 31
0.0
  0
LINE
  5
601
330
14
100
AcDbEntity
 67
     1
  8
0
100
AcDbLine
 10
1.383540480655508
 20
7.420509251267677
 30
0.0
 11
1.383540480655508
 21
5.839880798313446
 31
0.0
  0
LINE
  5
602
330
14
100
AcDbEntity
 67
     1
  8
0
100
AcDbLine
 10
1.584993126620265
 20
7.219118590732449
 30
0.0
 11
1.584993126620265
 21
6.0413334442782
 31
0.0
  0
LINE
  5
603
330
14
100
AcDbEntity
 67
     1
  8
0
100
AcDbLine
 10
1.584993126620265
 20
6.0413334442782
 30
0.0
 11
1.591191669573024
 21
6.03513490132544
 31
0.0
  0
LINE
  5
604
330
14
100
AcDbEntity
 67
     1
  8
0
100
AcDbLine
 10
1.302959422269606
 20
5.635824764308531
 30
0.0
 11
1.337051408509797
 21
5.632291594825455
 31
0.0
  0
LINE
  5
605
330
14
100
AcDbEntity
 67
     1
  8
0
100
AcDbLine
 10
1.325150206040492
 20
5.755394657867303
 30
0.0
 11
1.333518239026722
 21
5.751179648659426
 31
0.0
  0
LINE
  5
606
330
14
100
AcDbEntity
 67
     1
  8
0
100
AcDbLine
 10
1.182087834690754
 20
5.787255168644498
 30
0.0
 11
1.185559018744299
 21
5.753287153263364
 31
0.0
  0
LINE
  5
607
330
14
100
AcDbEntity
 67
     1
  8
0
100
AcDbLine
 10
1.300789932236138
 20
5.783907955450008
 30
0.0
 11
1.305004941444018
 21
5.775539922463778
 31
0.0
  0
LINE
  5
608
330
14
100
AcDbEntity
 67
     1
  8
0
100
AcDbLine
 10
1.279900842485331
 20
5.643077059563262
 30
0.0
 11
1.302959422269606
 21
5.635824764308531
 31
0.0
  0
LINE
  5
609
330
14
100
AcDbEntity
 67
     1
  8
0
100
AcDbLine
 10
1.257462116996336
 20
5.654172451448705
 30
0.0
 11
1.279900842485331
 21
5.643077059563262
 31
0.0
  0
LINE
  5
60A
330
14
100
AcDbEntity
 67
     1
  8
0
100
AcDbLine
 10
1.236758983534112
 20
5.668986969105806
 30
0.0
 11
1.257462116996336
 21
5.654172451448705
 31
0.0
  0
LINE
  5
60B
330
14
100
AcDbEntity
 67
     1
  8
0
100
AcDbLine
 10
1.218597252682519
 20
5.687148699957396
 30
0.0
 11
1.236758983534112
 21
5.668986969105806
 31
0.0
  0
LINE
  5
60C
330
14
100
AcDbEntity
 67
     1
  8
0
100
AcDbLine
 10
1.203720749595891
 20
5.707851833419621
 30
0.0
 11
1.218597252682519
 21
5.687148699957396
 31
0.0
  0
LINE
  5
60D
330
14
100
AcDbEntity
 67
     1
  8
0
100
AcDbLine
 10
1.192687343139975
 20
5.730228573479091
 30
0.0
 11
1.203720749595891
 21
5.707851833419621
 31
0.0
  0
LINE
  5
60E
330
14
100
AcDbEntity
 67
     1
  8
0
100
AcDbLine
 10
1.185559018744299
 20
5.753287153263364
 30
0.0
 11
1.192687343139975
 21
5.730228573479091
 31
0.0
  0
LINE
  5
60F
330
14
100
AcDbEntity
 67
     1
  8
0
100
AcDbLine
 10
1.317340041920012
 20
5.76097334652479
 30
0.0
 11
1.325150206040492
 21
5.755394657867303
 31
0.0
  0
LINE
  5
610
330
14
100
AcDbEntity
 67
     1
  8
0
100
AcDbLine
 10
1.310583630101504
 20
5.767791743772827
 30
0.0
 11
1.317340041920012
 21
5.76097334652479
 31
0.0
  0
LINE
  5
611
330
14
100
AcDbEntity
 67
     1
  8
0
100
AcDbLine
 10
1.305004941444018
 20
5.775539922463778
 30
0.0
 11
1.310583630101504
 21
5.767791743772827
 31
0.0
  0
LINE
  5
612
330
14
100
AcDbEntity
 67
     1
  8
0
100
AcDbLine
 10
1.182087834690754
 20
5.791408192422848
 30
0.0
 11
1.298372500484562
 21
5.791408192422848
 31
0.0
  0
LINE
  5
613
330
14
100
AcDbEntity
 67
     1
  8
0
100
AcDbLine
 10
1.182087834690754
 20
5.83014908587761
 30
0.0
 11
1.296760879316845
 21
5.83014908587761
 31
0.0
  0
LINE
  5
614
330
14
100
AcDbEntity
 67
     1
  8
0
100
AcDbLine
 10
1.182087834690754
 20
5.996270037011622
 30
0.0
 11
1.296760879316845
 21
5.996270037011622
 31
0.0
  0
LINE
  5
615
330
14
100
AcDbEntity
 67
     1
  8
0
100
AcDbLine
 10
1.182087834690754
 20
6.035010930466383
 30
0.0
 11
1.296760879316845
 21
6.035010930466383
 31
0.0
  0
LINE
  5
616
330
14
100
AcDbEntity
 67
     1
  8
0
100
AcDbLine
 10
1.182087834690754
 20
5.787255168644498
 30
0.0
 11
1.182087834690754
 21
5.787255168644498
 31
0.0
  0
LINE
  5
617
330
14
100
AcDbEntity
 67
     1
  8
0
100
AcDbLine
 10
1.298124558766452
 20
5.792461944724816
 30
0.0
 11
1.300789932236138
 21
5.783907955450008
 31
0.0
  0
LINE
  5
618
330
14
100
AcDbEntity
 67
     1
  8
0
100
AcDbLine
 10
1.296760879316845
 20
5.805044986918924
 30
0.0
 11
1.298124558766452
 21
5.792461944724816
 31
0.0
  0
LINE
  5
619
330
14
100
AcDbEntity
 67
     1
  8
0
100
AcDbLine
 10
1.296760879316845
 20
5.805044986918924
 30
0.0
 11
1.296760879316845
 21
5.805044986918924
 31
0.0
  0
LINE
  5
61A
330
14
100
AcDbEntity
 67
     1
  8
0
100
AcDbLine
 10
1.341204432288146
 20
5.632291594825455
 30
0.0
 11
1.341204432288146
 21
5.748576260619265
 31
0.0
  0
LINE
  5
61B
330
14
100
AcDbEntity
 67
     1
  8
0
100
AcDbLine
 10
1.379945325742906
 20
5.632291594825455
 30
0.0
 11
1.379945325742906
 21
5.746964639451547
 31
0.0
  0
LINE
  5
61C
330
14
100
AcDbEntity
 67
     1
  8
0
100
AcDbLine
 10
1.342134213731061
 20
5.748390304330682
 30
0.0
 11
1.354841226784221
 21
5.74690265402202
 31
0.0
  0
LINE
  5
61D
330
14
100
AcDbEntity
 67
     1
  8
0
100
AcDbLine
 10
1.333518239026722
 20
5.751179648659426
 30
0.0
 11
1.342134213731061
 21
5.748390304330682
 31
0.0
  0
LINE
  5
61E
330
14
100
AcDbEntity
 67
     1
  8
0
100
AcDbLine
 10
1.584807170331679
 20
5.632291594825455
 30
0.0
 11
1.584807170331679
 21
5.746964639451547
 31
0.0
  0
LINE
  5
61F
330
14
100
AcDbEntity
 67
     1
  8
0
100
AcDbLine
 10
1.54606627687692
 20
5.632291594825455
 30
0.0
 11
1.54606627687692
 21
5.746964639451547
 31
0.0
  0
LINE
  5
620
330
14
100
AcDbEntity
 67
     1
  8
0
100
AcDbLine
 10
1.526602852005246
 20
5.956847303832058
 30
0.0
 11
1.534970884991476
 21
5.952632294624182
 31
0.0
  0
LINE
  5
621
330
14
100
AcDbEntity
 67
     1
  8
0
100
AcDbLine
 10
1.383540480655508
 20
5.996270037011622
 30
0.0
 11
1.499143306724514
 21
5.996270037011622
 31
0.0
  0
LINE
  5
622
330
14
100
AcDbEntity
 67
     1
  8
0
100
AcDbLine
 10
1.383540480655508
 20
6.035010930466383
 30
0.0
 11
1.498213525281599
 21
6.035010930466383
 31
0.0
  0
LINE
  5
623
330
14
100
AcDbEntity
 67
     1
  8
0
100
AcDbLine
 10
1.518854673314296
 20
5.962425992489545
 30
0.0
 11
1.526602852005246
 21
5.956847303832058
 31
0.0
  0
LINE
  5
624
330
14
100
AcDbEntity
 67
     1
  8
0
100
AcDbLine
 10
1.512036276066258
 20
5.969244389737582
 30
0.0
 11
1.518854673314296
 21
5.962425992489545
 31
0.0
  0
LINE
  5
625
330
14
100
AcDbEntity
 67
     1
  8
0
100
AcDbLine
 10
1.506457587408773
 20
5.976992568428535
 30
0.0
 11
1.512036276066258
 21
5.969244389737582
 31
0.0
  0
LINE
  5
626
330
14
100
AcDbEntity
 67
     1
  8
0
100
AcDbLine
 10
1.502304563630421
 20
5.985360601414762
 30
0.0
 11
1.506457587408773
 21
5.976992568428535
 31
0.0
  0
LINE
  5
627
330
14
100
AcDbEntity
 67
     1
  8
0
100
AcDbLine
 10
1.499577204731205
 20
5.993914590689574
 30
0.0
 11
1.502304563630421
 21
5.985360601414762
 31
0.0
  0
LINE
  5
628
330
14
100
AcDbEntity
 67
     1
  8
0
100
AcDbLine
 10
1.498213525281599
 20
6.00649763288368
 30
0.0
 11
1.499577204731205
 21
5.993914590689574
 31
0.0
  0
LINE
  5
629
330
14
100
AcDbEntity
 67
     1
  8
0
100
AcDbLine
 10
1.498213525281599
 20
6.00649763288368
 30
0.0
 11
1.498213525281599
 21
6.00649763288368
 31
0.0
  0
LINE
  5
62A
330
14
100
AcDbEntity
 67
     1
  8
0
100
AcDbLine
 10
1.383540480655508
 20
5.839880798313446
 30
0.0
 11
1.38973902360827
 21
5.833682255360683
 31
0.0
  0
LINE
  5
62B
330
14
100
AcDbEntity
 67
     1
  8
0
100
AcDbLine
 10
1.584807170331679
 20
5.833744240790212
 30
0.0
 11
1.584807170331679
 21
5.948417285416303
 31
0.0
  0
LINE
  5
62C
330
14
100
AcDbEntity
 67
     1
  8
0
100
AcDbLine
 10
1.54606627687692
 20
5.833744240790212
 30
0.0
 11
1.54606627687692
 21
5.94928508142969
 31
0.0
  0
LINE
  5
62D
330
14
100
AcDbEntity
 67
     1
  8
0
100
AcDbLine
 10
1.543648845125342
 20
5.949842950295437
 30
0.0
 11
1.556355858178505
 21
5.948355299986776
 31
0.0
  0
LINE
  5
62E
330
14
100
AcDbEntity
 67
     1
  8
0
100
AcDbLine
 10
1.534970884991476
 20
5.952632294624182
 30
0.0
 11
1.543648845125342
 21
5.949842950295437
 31
0.0
  0
LINE
  5
62F
330
14
100
AcDbEntity
 67
     1
  8
0
100
AcDbLine
 10
1.699666171246356
 20
7.052501756162215
 30
0.0
 11
1.699666171246356
 21
6.207950278848437
 31
0.0
  0
LINE
  5
630
330
14
100
AcDbEntity
 67
     1
  8
0
100
AcDbLine
 10
1.182087834690754
 20
6.201131881600398
 30
0.0
 11
1.296760879316845
 21
6.201131881600398
 31
0.0
  0
LINE
  5
631
330
14
100
AcDbEntity
 67
     1
  8
0
100
AcDbLine
 10
1.182087834690754
 20
6.239872775055157
 30
0.0
 11
1.296760879316845
 21
6.239872775055157
 31
0.0
  0
LINE
  5
632
330
14
100
AcDbEntity
 67
     1
  8
0
100
AcDbLine
 10
1.182087834690754
 20
6.405993726189172
 30
0.0
 11
1.296760879316845
 21
6.405993726189172
 31
0.0
  0
LINE
  5
633
330
14
100
AcDbEntity
 67
     1
  8
0
100
AcDbLine
 10
1.182087834690754
 20
6.444734619643933
 30
0.0
 11
1.296760879316845
 21
6.444734619643933
 31
0.0
  0
LINE
  5
634
330
14
100
AcDbEntity
 67
     1
  8
0
100
AcDbLine
 10
1.383540480655508
 20
6.239872775055157
 30
0.0
 11
1.498213525281599
 21
6.239872775055157
 31
0.0
  0
LINE
  5
635
330
14
100
AcDbEntity
 67
     1
  8
0
100
AcDbLine
 10
1.383540480655508
 20
6.201131881600398
 30
0.0
 11
1.498213525281599
 21
6.201131881600398
 31
0.0
  0
LINE
  5
636
330
14
100
AcDbEntity
 67
     1
  8
0
100
AcDbLine
 10
1.584993126620265
 20
6.201131881600398
 30
0.0
 11
1.700038083823521
 21
6.201131881600398
 31
0.0
  0
LINE
  5
637
330
14
100
AcDbEntity
 67
     1
  8
0
100
AcDbLine
 10
1.584993126620265
 20
6.239872775055157
 30
0.0
 11
1.699666171246356
 21
6.239872775055157
 31
0.0
  0
LINE
  5
638
330
14
100
AcDbEntity
 67
     1
  8
0
100
AcDbLine
 10
1.720369304708579
 20
6.163940623883826
 30
0.0
 11
1.728117483399531
 21
6.158299949796814
 31
0.0
  0
LINE
  5
639
330
14
100
AcDbEntity
 67
     1
  8
0
100
AcDbLine
 10
1.713550907460541
 20
6.170697035702338
 30
0.0
 11
1.720369304708579
 21
6.163940623883826
 31
0.0
  0
LINE
  5
63A
330
14
100
AcDbEntity
 67
     1
  8
0
100
AcDbLine
 10
1.707972218803056
 20
6.178445214393288
 30
0.0
 11
1.713550907460541
 21
6.170697035702338
 31
0.0
  0
LINE
  5
63B
330
14
100
AcDbEntity
 67
     1
  8
0
100
AcDbLine
 10
1.703757209595178
 20
6.186813247379517
 30
0.0
 11
1.707972218803056
 21
6.178445214393288
 31
0.0
  0
LINE
  5
63C
330
14
100
AcDbEntity
 67
     1
  8
0
100
AcDbLine
 10
1.701029850695963
 20
6.195367236654329
 30
0.0
 11
1.703757209595178
 21
6.186813247379517
 31
0.0
  0
LINE
  5
63D
330
14
100
AcDbEntity
 67
     1
  8
0
100
AcDbLine
 10
1.699666171246356
 20
6.207950278848437
 30
0.0
 11
1.701029850695963
 21
6.195367236654329
 31
0.0
  0
LINE
  5
63E
330
14
100
AcDbEntity
 67
     1
  8
0
100
AcDbLine
 10
1.699666171246356
 20
6.207950278848437
 30
0.0
 11
1.699666171246356
 21
6.207950278848437
 31
0.0
  0
LINE
  5
63F
330
14
100
AcDbEntity
 67
     1
  8
0
100
AcDbLine
 10
1.383540480655508
 20
6.405993726189172
 30
0.0
 11
1.498213525281599
 21
6.405993726189172
 31
0.0
  0
LINE
  5
640
330
14
100
AcDbEntity
 67
     1
  8
0
100
AcDbLine
 10
1.383540480655508
 20
6.444734619643933
 30
0.0
 11
1.498213525281599
 21
6.444734619643933
 31
0.0
  0
LINE
  5
641
330
14
100
AcDbEntity
 67
     1
  8
0
100
AcDbLine
 10
1.584993126620265
 20
6.405993726189172
 30
0.0
 11
1.699666171246356
 21
6.405993726189172
 31
0.0
  0
LINE
  5
642
330
14
100
AcDbEntity
 67
     1
  8
0
100
AcDbLine
 10
1.584993126620265
 20
6.444734619643933
 30
0.0
 11
1.699666171246356
 21
6.444734619643933
 31
0.0
  0
LINE
  5
643
330
14
100
AcDbEntity
 67
     1
  8
0
100
AcDbLine
 10
1.182087834690754
 20
6.610855570777946
 30
0.0
 11
1.296760879316845
 21
6.610855570777946
 31
0.0
  0
LINE
  5
644
330
14
100
AcDbEntity
 67
     1
  8
0
100
AcDbLine
 10
1.182087834690754
 20
6.649596464232707
 30
0.0
 11
1.296760879316845
 21
6.649596464232707
 31
0.0
  0
LINE
  5
645
330
14
100
AcDbEntity
 67
     1
  8
0
100
AcDbLine
 10
1.182087834690754
 20
6.81571741536672
 30
0.0
 11
1.296760879316845
 21
6.81571741536672
 31
0.0
  0
LINE
  5
646
330
14
100
AcDbEntity
 67
     1
  8
0
100
AcDbLine
 10
1.182087834690754
 20
6.854458308821481
 30
0.0
 11
1.296760879316845
 21
6.854458308821481
 31
0.0
  0
LINE
  5
647
330
14
100
AcDbEntity
 67
     1
  8
0
100
AcDbLine
 10
1.182087834690754
 20
7.020579259955495
 30
0.0
 11
1.296760879316845
 21
7.020579259955495
 31
0.0
  0
LINE
  5
648
330
14
100
AcDbEntity
 67
     1
  8
0
100
AcDbLine
 10
1.182087834690754
 20
7.059320153410255
 30
0.0
 11
1.296760879316845
 21
7.059320153410255
 31
0.0
  0
LINE
  5
649
330
14
100
AcDbEntity
 67
     1
  8
0
100
AcDbLine
 10
1.383540480655508
 20
6.81571741536672
 30
0.0
 11
1.498213525281599
 21
6.81571741536672
 31
0.0
  0
LINE
  5
64A
330
14
100
AcDbEntity
 67
     1
  8
0
100
AcDbLine
 10
1.383540480655508
 20
6.610855570777946
 30
0.0
 11
1.498213525281599
 21
6.610855570777946
 31
0.0
  0
LINE
  5
64B
330
14
100
AcDbEntity
 67
     1
  8
0
100
AcDbLine
 10
1.383540480655508
 20
6.649596464232707
 30
0.0
 11
1.498213525281599
 21
6.649596464232707
 31
0.0
  0
LINE
  5
64C
330
14
100
AcDbEntity
 67
     1
  8
0
100
AcDbLine
 10
1.584993126620265
 20
6.610855570777946
 30
0.0
 11
1.699666171246356
 21
6.610855570777946
 31
0.0
  0
LINE
  5
64D
330
14
100
AcDbEntity
 67
     1
  8
0
100
AcDbLine
 10
1.584993126620265
 20
6.649596464232707
 30
0.0
 11
1.699666171246356
 21
6.649596464232707
 31
0.0
  0
LINE
  5
64E
330
14
100
AcDbEntity
 67
     1
  8
0
100
AcDbLine
 10
1.584993126620265
 20
6.81571741536672
 30
0.0
 11
1.699666171246356
 21
6.81571741536672
 31
0.0
  0
LINE
  5
64F
330
14
100
AcDbEntity
 67
     1
  8
0
100
AcDbLine
 10
1.383540480655508
 20
7.020579259955495
 30
0.0
 11
1.498213525281599
 21
7.020579259955495
 31
0.0
  0
LINE
  5
650
330
14
100
AcDbEntity
 67
     1
  8
0
100
AcDbLine
 10
1.383540480655508
 20
7.059320153410255
 30
0.0
 11
1.498213525281599
 21
7.059320153410255
 31
0.0
  0
LINE
  5
651
330
14
100
AcDbEntity
 67
     1
  8
0
100
AcDbLine
 10
1.383540480655508
 20
6.854458308821481
 30
0.0
 11
1.498213525281599
 21
6.854458308821481
 31
0.0
  0
LINE
  5
652
330
14
100
AcDbEntity
 67
     1
  8
0
100
AcDbLine
 10
1.584993126620265
 20
7.020579259955495
 30
0.0
 11
1.699666171246356
 21
7.020579259955495
 31
0.0
  0
LINE
  5
653
330
14
100
AcDbEntity
 67
     1
  8
0
100
AcDbLine
 10
1.584993126620265
 20
7.059320153410255
 30
0.0
 11
1.700038083823521
 21
7.059320153410255
 31
0.0
  0
LINE
  5
654
330
14
100
AcDbEntity
 67
     1
  8
0
100
AcDbLine
 10
1.584993126620265
 20
6.854458308821481
 30
0.0
 11
1.699666171246356
 21
6.854458308821481
 31
0.0
  0
LINE
  5
655
330
14
100
AcDbEntity
 67
     1
  8
0
100
AcDbLine
 10
1.701029850695963
 20
7.065580681792543
 30
0.0
 11
1.699666171246356
 21
7.052501756162215
 31
0.0
  0
LINE
  5
656
330
14
100
AcDbEntity
 67
     1
  8
0
100
AcDbLine
 10
1.703757209595178
 20
7.074382612785465
 30
0.0
 11
1.701029850695963
 21
7.065580681792543
 31
0.0
  0
LINE
  5
657
330
14
100
AcDbEntity
 67
     1
  8
0
100
AcDbLine
 10
1.584807170331679
 20
7.513549380988632
 30
0.0
 11
1.584807170331679
 21
7.628160440185192
 31
0.0
  0
LINE
  5
658
330
14
100
AcDbEntity
 67
     1
  8
0
100
AcDbLine
 10
1.54606627687692
 20
7.513549380988632
 30
0.0
 11
1.54606627687692
 21
7.628160440185192
 31
0.0
  0
LINE
  5
659
330
14
100
AcDbEntity
 67
     1
  8
0
100
AcDbLine
 10
1.341204432288146
 20
7.511875774391387
 30
0.0
 11
1.341204432288146
 21
7.628160440185192
 31
0.0
  0
LINE
  5
65A
330
14
100
AcDbEntity
 67
     1
  8
0
100
AcDbLine
 10
1.379945325742906
 20
7.513549380988632
 30
0.0
 11
1.379945325742906
 21
7.628160440185192
 31
0.0
  0
LINE
  5
65B
330
14
100
AcDbEntity
 67
     1
  8
0
100
AcDbLine
 10
1.257462116996336
 20
7.607147379575329
 30
0.0
 11
1.236758983534112
 21
7.592394847347762
 31
0.0
  0
LINE
  5
65C
330
14
100
AcDbEntity
 67
     1
  8
0
100
AcDbLine
 10
1.333518239026722
 20
7.509954226076028
 30
0.0
 11
1.325150206040492
 21
7.505925173156732
 31
0.0
  0
LINE
  5
65D
330
14
100
AcDbEntity
 67
     1
  8
0
100
AcDbLine
 10
1.182087834690754
 20
7.225441104544267
 30
0.0
 11
1.296760879316845
 21
7.225441104544267
 31
0.0
  0
LINE
  5
65E
330
14
100
AcDbEntity
 67
     1
  8
0
100
AcDbLine
 10
1.182087834690754
 20
7.264181997999027
 30
0.0
 11
1.296760879316845
 21
7.264181997999027
 31
0.0
  0
LINE
  5
65F
330
14
100
AcDbEntity
 67
     1
  8
0
100
AcDbLine
 10
1.182087834690754
 20
7.469043842587801
 30
0.0
 11
1.298372500484562
 21
7.469043842587801
 31
0.0
  0
LINE
  5
660
330
14
100
AcDbEntity
 67
     1
  8
0
100
AcDbLine
 10
1.182087834690754
 20
7.430302949133038
 30
0.0
 11
1.296760879316845
 21
7.430302949133038
 31
0.0
  0
LINE
  5
661
330
14
100
AcDbEntity
 67
     1
  8
0
100
AcDbLine
 10
1.185559018744299
 20
7.507660765183508
 30
0.0
 11
1.182087834690754
 21
7.473196866366151
 31
0.0
  0
LINE
  5
662
330
14
100
AcDbEntity
 67
     1
  8
0
100
AcDbLine
 10
1.192687343139975
 20
7.530905301256363
 30
0.0
 11
1.185559018744299
 21
7.507660765183508
 31
0.0
  0
LINE
  5
663
330
14
100
AcDbEntity
 67
     1
  8
0
100
AcDbLine
 10
1.203720749595891
 20
7.553467997604418
 30
0.0
 11
1.192687343139975
 21
7.530905301256363
 31
0.0
  0
LINE
  5
664
330
14
100
AcDbEntity
 67
     1
  8
0
100
AcDbLine
 10
1.218597252682519
 20
7.574233116496166
 30
0.0
 11
1.203720749595891
 21
7.553467997604418
 31
0.0
  0
LINE
  5
665
330
14
100
AcDbEntity
 67
     1
  8
0
100
AcDbLine
 10
1.236758983534112
 20
7.592394847347762
 30
0.0
 11
1.218597252682519
 21
7.574233116496166
 31
0.0
  0
LINE
  5
666
330
14
100
AcDbEntity
 67
     1
  8
0
100
AcDbLine
 10
1.298124558766452
 20
7.468485973722057
 30
0.0
 11
1.296760879316845
 21
7.455407048091725
 31
0.0
  0
LINE
  5
667
330
14
100
AcDbEntity
 67
     1
  8
0
100
AcDbLine
 10
1.300789932236138
 20
7.477287904714974
 30
0.0
 11
1.298124558766452
 21
7.468485973722057
 31
0.0
  0
LINE
  5
668
330
14
100
AcDbEntity
 67
     1
  8
0
100
AcDbLine
 10
1.305004941444018
 20
7.485779908560258
 30
0.0
 11
1.300789932236138
 21
7.477287904714974
 31
0.0
  0
LINE
  5
669
330
14
100
AcDbEntity
 67
     1
  8
0
100
AcDbLine
 10
1.310583630101504
 20
7.493652058110267
 30
0.0
 11
1.305004941444018
 21
7.485779908560258
 31
0.0
  0
LINE
  5
66A
330
14
100
AcDbEntity
 67
     1
  8
0
100
AcDbLine
 10
1.317340041920012
 20
7.500408469928776
 30
0.0
 11
1.310583630101504
 21
7.493652058110267
 31
0.0
  0
LINE
  5
66B
330
14
100
AcDbEntity
 67
     1
  8
0
100
AcDbLine
 10
1.325150206040492
 20
7.505925173156732
 30
0.0
 11
1.317340041920012
 21
7.500408469928776
 31
0.0
  0
LINE
  5
66C
330
14
100
AcDbEntity
 67
     1
  8
0
100
AcDbLine
 10
1.584807170331679
 20
7.312096735023877
 30
0.0
 11
1.584807170331679
 21
7.426769779649967
 31
0.0
  0
LINE
  5
66D
330
14
100
AcDbEntity
 67
     1
  8
0
100
AcDbLine
 10
1.54606627687692
 20
7.311166953580962
 30
0.0
 11
1.54606627687692
 21
7.426769779649967
 31
0.0
  0
LINE
  5
66E
330
14
100
AcDbEntity
 67
     1
  8
0
100
AcDbLine
 10
1.534970884991476
 20
7.308501580111276
 30
0.0
 11
1.526602852005246
 21
7.304472527191981
 31
0.0
  0
LINE
  5
66F
330
14
100
AcDbEntity
 67
     1
  8
0
100
AcDbLine
 10
1.383540480655508
 20
7.264181997999027
 30
0.0
 11
1.499143306724514
 21
7.264181997999027
 31
0.0
  0
LINE
  5
670
330
14
100
AcDbEntity
 67
     1
  8
0
100
AcDbLine
 10
1.383540480655508
 20
7.225441104544267
 30
0.0
 11
1.498213525281599
 21
7.225441104544267
 31
0.0
  0
LINE
  5
671
330
14
100
AcDbEntity
 67
     1
  8
0
100
AcDbLine
 10
1.499577204731205
 20
7.2670333277573
 30
0.0
 11
1.498213525281599
 21
7.253954402126972
 31
0.0
  0
LINE
  5
672
330
14
100
AcDbEntity
 67
     1
  8
0
100
AcDbLine
 10
1.502304563630421
 20
7.275835258750222
 30
0.0
 11
1.499577204731205
 21
7.2670333277573
 31
0.0
  0
LINE
  5
673
330
14
100
AcDbEntity
 67
     1
  8
0
100
AcDbLine
 10
1.506457587408773
 20
7.284327262595508
 30
0.0
 11
1.502304563630421
 21
7.275835258750222
 31
0.0
  0
LINE
  5
674
330
14
100
AcDbEntity
 67
     1
  8
0
100
AcDbLine
 10
1.512036276066258
 20
7.292137426715985
 30
0.0
 11
1.506457587408773
 21
7.284327262595508
 31
0.0
  0
LINE
  5
675
330
14
100
AcDbEntity
 67
     1
  8
0
100
AcDbLine
 10
1.518854673314296
 20
7.29895582396402
 30
0.0
 11
1.512036276066258
 21
7.292137426715985
 31
0.0
  0
LINE
  5
676
330
14
100
AcDbEntity
 67
     1
  8
0
100
AcDbLine
 10
1.526602852005246
 20
7.304472527191981
 30
0.0
 11
1.518854673314296
 21
7.29895582396402
 31
0.0
  0
LINE
  5
677
330
14
100
AcDbEntity
 67
     1
  8
0
100
AcDbLine
 10
1.713550907460541
 20
7.090684780751226
 30
0.0
 11
1.707972218803056
 21
7.082874616630749
 31
0.0
  0
LINE
  5
678
330
14
100
AcDbEntity
 67
     1
  8
0
100
AcDbLine
 10
1.720369304708579
 20
7.097503177999267
 30
0.0
 11
1.713550907460541
 21
7.090684780751226
 31
0.0
  0
LINE
  5
679
330
14
100
AcDbEntity
 67
     1
  8
0
100
AcDbLine
 10
1.728117483399531
 20
7.103019881227224
 30
0.0
 11
1.720369304708579
 21
7.097503177999267
 31
0.0
  0
LINE
  5
67A
330
14
100
AcDbEntity
 67
     1
  8
0
100
AcDbLine
 10
1.543648845125342
 20
7.311042982721906
 30
0.0
 11
1.534970884991476
 21
7.308501580111276
 31
0.0
  0
LINE
  5
67B
330
14
100
AcDbEntity
 67
     1
  8
0
100
AcDbLine
 10
1.556355858178505
 20
7.312034749594348
 30
0.0
 11
1.543648845125342
 21
7.311042982721906
 31
0.0
  0
LINE
  5
67C
330
14
100
AcDbEntity
 67
     1
  8
0
100
AcDbLine
 10
1.591191669573024
 20
7.225255148255683
 30
0.0
 11
1.584993126620265
 21
7.219118590732449
 31
0.0
  0
LINE
  5
67D
330
14
100
AcDbEntity
 67
     1
  8
0
100
AcDbLine
 10
1.342134213731061
 20
7.512495628686661
 30
0.0
 11
1.333518239026722
 21
7.509954226076028
 31
0.0
  0
LINE
  5
67E
330
14
100
AcDbEntity
 67
     1
  8
0
100
AcDbLine
 10
1.354841226784221
 20
7.513487395559102
 30
0.0
 11
1.342134213731061
 21
7.512495628686661
 31
0.0
  0
LINE
  5
67F
330
14
100
AcDbEntity
 67
     1
  8
0
100
AcDbLine
 10
1.38973902360827
 20
7.426707794220438
 30
0.0
 11
1.383540480655508
 21
7.420509251267677
 31
0.0
  0
LINE
  5
680
330
14
100
AcDbEntity
 67
     1
  8
0
100
AcDbLine
 10
1.337051408509797
 20
7.628160440185192
 30
0.0
 11
1.302959422269606
 21
7.625061168708811
 31
0.0
  0
LINE
  5
681
330
14
100
AcDbEntity
 67
     1
  8
0
100
AcDbLine
 10
1.279900842485331
 20
7.618118800601723
 30
0.0
 11
1.257462116996336
 21
7.607147379575329
 31
0.0
  0
LINE
  5
682
330
14
100
AcDbEntity
 67
     1
  8
0
100
AcDbLine
 10
1.302959422269606
 20
7.625061168708811
 30
0.0
 11
1.279900842485331
 21
7.618118800601723
 31
0.0
  0
LINE
  5
683
330
14
100
AcDbEntity
 67
     1
  8
0
100
AcDbLine
 10
3.178018665480021
 20
5.787255168644498
 30
0.0
 11
3.178018665480021
 21
7.473196866366151
 31
0.0
  0
LINE
  5
684
330
14
100
AcDbEntity
 67
     1
  8
0
100
AcDbLine
 10
2.65672120315276
 20
7.074382612785465
 30
0.0
 11
2.652630164803938
 21
7.082874616630749
 31
0.0
  0
LINE
  5
685
330
14
100
AcDbEntity
 67
     1
  8
0
100
AcDbLine
 10
2.861892974889173
 20
6.00649763288368
 30
0.0
 11
2.861892974889173
 21
7.253954402126972
 31
0.0
  0
LINE
  5
686
330
14
100
AcDbEntity
 67
     1
  8
0
100
AcDbLine
 10
3.063345620853928
 20
5.805044986918924
 30
0.0
 11
3.063345620853928
 21
7.455407048091725
 31
0.0
  0
LINE
  5
687
330
14
100
AcDbEntity
 67
     1
  8
0
100
AcDbLine
 10
2.976566019515263
 20
5.839880798313446
 30
0.0
 11
2.976566019515263
 21
7.420509251267677
 31
0.0
  0
LINE
  5
688
330
14
100
AcDbEntity
 67
     1
  8
0
100
AcDbLine
 10
2.775113373550509
 20
6.0413334442782
 30
0.0
 11
2.775113373550509
 21
7.219056605302923
 31
0.0
  0
LINE
  5
689
330
14
100
AcDbEntity
 67
     1
  8
0
100
AcDbLine
 10
2.609178378705078
 20
6.035196886754968
 30
0.0
 11
2.609178378705078
 21
6.150241843958222
 31
0.0
  0
LINE
  5
68A
330
14
100
AcDbEntity
 67
     1
  8
0
100
AcDbLine
 10
2.57043748525032
 20
6.035196886754968
 30
0.0
 11
2.57043748525032
 21
6.149869931381058
 31
0.0
  0
LINE
  5
68B
330
14
100
AcDbEntity
 67
     1
  8
0
100
AcDbLine
 10
2.404316534116304
 20
6.035196886754968
 30
0.0
 11
2.404316534116304
 21
6.149869931381058
 31
0.0
  0
LINE
  5
68C
330
14
100
AcDbEntity
 67
     1
  8
0
100
AcDbLine
 10
2.365575640661544
 20
6.035196886754968
 30
0.0
 11
2.365575640661544
 21
6.149869931381058
 31
0.0
  0
LINE
  5
68D
330
14
100
AcDbEntity
 67
     1
  8
0
100
AcDbLine
 10
1.994530859509229
 20
6.035196886754968
 30
0.0
 11
1.994530859509229
 21
6.149869931381058
 31
0.0
  0
LINE
  5
68E
330
14
100
AcDbEntity
 67
     1
  8
0
100
AcDbLine
 10
1.955789966054469
 20
6.035196886754968
 30
0.0
 11
1.955789966054469
 21
6.149869931381058
 31
0.0
  0
LINE
  5
68F
330
14
100
AcDbEntity
 67
     1
  8
0
100
AcDbLine
 10
1.789669014920455
 20
6.035196886754968
 30
0.0
 11
1.789669014920455
 21
6.149869931381058
 31
0.0
  0
LINE
  5
690
330
14
100
AcDbEntity
 67
     1
  8
0
100
AcDbLine
 10
1.750928121465693
 20
6.035196886754968
 30
0.0
 11
1.750928121465693
 21
6.150241843958222
 31
0.0
  0
LINE
  5
691
330
14
100
AcDbEntity
 67
     1
  8
0
100
AcDbLine
 10
2.277680301591384
 20
5.967756739428918
 30
0.0
 11
2.277680301591384
 21
6.130468491938914
 31
0.0
  0
LINE
  5
692
330
14
100
AcDbEntity
 67
     1
  8
0
100
AcDbLine
 10
2.082426198579391
 20
6.130468491938914
 30
0.0
 11
2.082426198579391
 21
5.967756739428918
 31
0.0
  0
LINE
  5
693
330
14
100
AcDbEntity
 67
     1
  8
0
100
AcDbLine
 10
2.768914830597747
 20
6.03513490132544
 30
0.0
 11
2.775113373550509
 21
6.0413334442782
 31
0.0
  0
CIRCLE
  5
694
330
14
100
AcDbEntity
 67
     1
  8
0
100
AcDbCircle
 10
2.180053250085386
 20
6.084785230377058
 30
0.0
 40
0.0629152109705313
  0
CIRCLE
  5
695
330
14
100
AcDbEntity
 67
     1
  8
0
100
AcDbCircle
 10
2.180053250085386
 20
6.084785230377058
 30
0.0
 40
0.0542372508366649
  0
LINE
  5
696
330
14
100
AcDbEntity
 67
     1
  8
0
100
AcDbLine
 10
2.277680301591384
 20
5.74690265402202
 30
0.0
 11
3.005203287957022
 21
5.74690265402202
 31
0.0
  0
LINE
  5
697
330
14
100
AcDbEntity
 67
     1
  8
0
100
AcDbLine
 10
2.277680301591384
 20
5.833682255360683
 30
0.0
 11
2.970367476562504
 21
5.833682255360683
 31
0.0
  0
LINE
  5
698
330
14
100
AcDbEntity
 67
     1
  8
0
100
AcDbLine
 10
2.277680301591384
 20
6.03513490132544
 30
0.0
 11
2.768914830597747
 21
6.03513490132544
 31
0.0
  0
LINE
  5
699
330
14
100
AcDbEntity
 67
     1
  8
0
100
AcDbLine
 10
2.258278862149239
 20
5.875584405721352
 30
0.0
 11
2.101765652592006
 21
5.875584405721352
 31
0.0
  0
LINE
  5
69A
330
14
100
AcDbEntity
 67
     1
  8
0
100
AcDbLine
 10
2.101765652592006
 20
5.68033030270936
 30
0.0
 11
2.258278862149239
 21
5.68033030270936
 31
0.0
  0
LINE
  5
69B
330
14
100
AcDbEntity
 67
     1
  8
0
100
AcDbLine
 10
2.101765652592006
 20
5.948355299986776
 30
0.0
 11
2.258278862149239
 21
5.948355299986776
 31
0.0
  0
CIRCLE
  5
69C
330
14
100
AcDbEntity
 67
     1
  8
0
100
AcDbCircle
 10
2.180053250085386
 20
5.777957354215356
 30
0.0
 40
0.0629152109705313
  0
CIRCLE
  5
69D
330
14
100
AcDbEntity
 67
     1
  8
0
100
AcDbCircle
 10
2.180053250085386
 20
5.777957354215356
 30
0.0
 40
0.0542372508366649
  0
LINE
  5
69E
330
14
100
AcDbEntity
 67
     1
  8
0
100
AcDbLine
 10
2.082426198579391
 20
5.856182966279209
 30
0.0
 11
2.082426198579391
 21
5.699669756721976
 31
0.0
  0
LINE
  5
69F
330
14
100
AcDbEntity
 67
     1
  8
0
100
AcDbLine
 10
1.789669014920455
 20
5.632291594825455
 30
0.0
 11
1.789669014920455
 21
5.746964639451547
 31
0.0
  0
LINE
  5
6A0
330
14
100
AcDbEntity
 67
     1
  8
0
100
AcDbLine
 10
1.750928121465693
 20
5.632291594825455
 30
0.0
 11
1.750928121465693
 21
5.746964639451547
 31
0.0
  0
LINE
  5
6A1
330
14
100
AcDbEntity
 67
     1
  8
0
100
AcDbLine
 10
2.097612628813656
 20
5.680950157004636
 30
0.0
 11
2.101765652592006
 21
5.68033030270936
 31
0.0
  0
LINE
  5
6A2
330
14
100
AcDbEntity
 67
     1
  8
0
100
AcDbLine
 10
2.094823284484912
 20
5.681941923877077
 30
0.0
 11
2.097612628813656
 21
5.680950157004636
 31
0.0
  0
LINE
  5
6A3
330
14
100
AcDbEntity
 67
     1
  8
0
100
AcDbLine
 10
2.092033940156169
 20
5.683367588756213
 30
0.0
 11
2.094823284484912
 21
5.681941923877077
 31
0.0
  0
LINE
  5
6A4
330
14
100
AcDbEntity
 67
     1
  8
0
100
AcDbLine
 10
2.089492537545537
 20
5.685289137071567
 30
0.0
 11
2.092033940156169
 21
5.683367588756213
 31
0.0
  0
LINE
  5
6A5
330
14
100
AcDbEntity
 67
     1
  8
0
100
AcDbLine
 10
2.087199076653018
 20
5.687520612534562
 30
0.0
 11
2.089492537545537
 21
5.685289137071567
 31
0.0
  0
LINE
  5
6A6
330
14
100
AcDbEntity
 67
     1
  8
0
100
AcDbLine
 10
2.085339513767188
 20
5.690062015145195
 30
0.0
 11
2.087199076653018
 21
5.687520612534562
 31
0.0
  0
LINE
  5
6A7
330
14
100
AcDbEntity
 67
     1
  8
0
100
AcDbLine
 10
2.083913848888051
 20
5.692789374044409
 30
0.0
 11
2.085339513767188
 21
5.690062015145195
 31
0.0
  0
LINE
  5
6A8
330
14
100
AcDbEntity
 67
     1
  8
0
100
AcDbLine
 10
2.082984067445138
 20
5.695578718373153
 30
0.0
 11
2.083913848888051
 21
5.692789374044409
 31
0.0
  0
LINE
  5
6A9
330
14
100
AcDbEntity
 67
     1
  8
0
100
AcDbLine
 10
2.082426198579391
 20
5.699669756721976
 30
0.0
 11
2.082984067445138
 21
5.695578718373153
 31
0.0
  0
LINE
  5
6AA
330
14
100
AcDbEntity
 67
     1
  8
0
100
AcDbLine
 10
2.082426198579391
 20
5.699669756721976
 30
0.0
 11
2.082426198579391
 21
5.699669756721976
 31
0.0
  0
LINE
  5
6AB
330
14
100
AcDbEntity
 67
     1
  8
0
100
AcDbLine
 10
1.994530859509229
 20
5.632291594825455
 30
0.0
 11
1.994530859509229
 21
5.746964639451547
 31
0.0
  0
LINE
  5
6AC
330
14
100
AcDbEntity
 67
     1
  8
0
100
AcDbLine
 10
1.955789966054469
 20
5.632291594825455
 30
0.0
 11
1.955789966054469
 21
5.746964639451547
 31
0.0
  0
LINE
  5
6AD
330
14
100
AcDbEntity
 67
     1
  8
0
100
AcDbLine
 10
1.789669014920455
 20
5.833744240790212
 30
0.0
 11
1.789669014920455
 21
5.948417285416303
 31
0.0
  0
LINE
  5
6AE
330
14
100
AcDbEntity
 67
     1
  8
0
100
AcDbLine
 10
1.750928121465693
 20
5.833744240790212
 30
0.0
 11
1.750928121465693
 21
5.948417285416303
 31
0.0
  0
LINE
  5
6AF
330
14
100
AcDbEntity
 67
     1
  8
0
100
AcDbLine
 10
2.082984067445138
 20
5.860645917205197
 30
0.0
 11
2.082426198579391
 21
5.856182966279209
 31
0.0
  0
LINE
  5
6B0
330
14
100
AcDbEntity
 67
     1
  8
0
100
AcDbLine
 10
2.083913848888051
 20
5.86368320325205
 30
0.0
 11
2.082984067445138
 21
5.860645917205197
 31
0.0
  0
LINE
  5
6B1
330
14
100
AcDbEntity
 67
     1
  8
0
100
AcDbLine
 10
2.085339513767188
 20
5.866534533010321
 30
0.0
 11
2.083913848888051
 21
5.86368320325205
 31
0.0
  0
LINE
  5
6B2
330
14
100
AcDbEntity
 67
     1
  8
0
100
AcDbLine
 10
2.087199076653018
 20
5.869199906480008
 30
0.0
 11
2.085339513767188
 21
5.866534533010321
 31
0.0
  0
LINE
  5
6B3
330
14
100
AcDbEntity
 67
     1
  8
0
100
AcDbLine
 10
2.089492537545537
 20
5.87149336737253
 30
0.0
 11
2.087199076653018
 21
5.869199906480008
 31
0.0
  0
LINE
  5
6B4
330
14
100
AcDbEntity
 67
     1
  8
0
100
AcDbLine
 10
2.092033940156169
 20
5.873290944828831
 30
0.0
 11
2.089492537545537
 21
5.87149336737253
 31
0.0
  0
LINE
  5
6B5
330
14
100
AcDbEntity
 67
     1
  8
0
100
AcDbLine
 10
2.094823284484912
 20
5.874592638848911
 30
0.0
 11
2.092033940156169
 21
5.873290944828831
 31
0.0
  0
LINE
  5
6B6
330
14
100
AcDbEntity
 67
     1
  8
0
100
AcDbLine
 10
2.097612628813656
 20
5.875398449432769
 30
0.0
 11
2.094823284484912
 21
5.874592638848911
 31
0.0
  0
LINE
  5
6B7
330
14
100
AcDbEntity
 67
     1
  8
0
100
AcDbLine
 10
2.101765652592006
 20
5.875584405721352
 30
0.0
 11
2.097612628813656
 21
5.875398449432769
 31
0.0
  0
LINE
  5
6B8
330
14
100
AcDbEntity
 67
     1
  8
0
100
AcDbLine
 10
1.994530859509229
 20
5.833744240790212
 30
0.0
 11
1.994530859509229
 21
5.948417285416303
 31
0.0
  0
LINE
  5
6B9
330
14
100
AcDbEntity
 67
     1
  8
0
100
AcDbLine
 10
1.955789966054469
 20
5.833744240790212
 30
0.0
 11
1.955789966054469
 21
5.948417285416303
 31
0.0
  0
LINE
  5
6BA
330
14
100
AcDbEntity
 67
     1
  8
0
100
AcDbLine
 10
2.097612628813656
 20
5.948975154282051
 30
0.0
 11
2.101765652592006
 21
5.948355299986776
 31
0.0
  0
LINE
  5
6BB
330
14
100
AcDbEntity
 67
     1
  8
0
100
AcDbLine
 10
2.094823284484912
 20
5.950028906584021
 30
0.0
 11
2.097612628813656
 21
5.948975154282051
 31
0.0
  0
LINE
  5
6BC
330
14
100
AcDbEntity
 67
     1
  8
0
100
AcDbLine
 10
2.092033940156169
 20
5.951454571463155
 30
0.0
 11
2.094823284484912
 21
5.950028906584021
 31
0.0
  0
LINE
  5
6BD
330
14
100
AcDbEntity
 67
     1
  8
0
100
AcDbLine
 10
2.089492537545537
 20
5.953376119778512
 30
0.0
 11
2.092033940156169
 21
5.951454571463155
 31
0.0
  0
LINE
  5
6BE
330
14
100
AcDbEntity
 67
     1
  8
0
100
AcDbLine
 10
2.087199076653018
 20
5.955669580671035
 30
0.0
 11
2.089492537545537
 21
5.953376119778512
 31
0.0
  0
LINE
  5
6BF
330
14
100
AcDbEntity
 67
     1
  8
0
100
AcDbLine
 10
2.085339513767188
 20
5.958210983281666
 30
0.0
 11
2.087199076653018
 21
5.955669580671035
 31
0.0
  0
LINE
  5
6C0
330
14
100
AcDbEntity
 67
     1
  8
0
100
AcDbLine
 10
2.083913848888051
 20
5.960938342180882
 30
0.0
 11
2.085339513767188
 21
5.958210983281666
 31
0.0
  0
LINE
  5
6C1
330
14
100
AcDbEntity
 67
     1
  8
0
100
AcDbLine
 10
2.082984067445138
 20
5.963727686509624
 30
0.0
 11
2.083913848888051
 21
5.960938342180882
 31
0.0
  0
LINE
  5
6C2
330
14
100
AcDbEntity
 67
     1
  8
0
100
AcDbLine
 10
2.082426198579391
 20
5.967756739428918
 30
0.0
 11
2.082984067445138
 21
5.963727686509624
 31
0.0
  0
LINE
  5
6C3
330
14
100
AcDbEntity
 67
     1
  8
0
100
AcDbLine
 10
2.082426198579391
 20
5.967756739428918
 30
0.0
 11
2.082426198579391
 21
5.967756739428918
 31
0.0
  0
LINE
  5
6C4
330
14
100
AcDbEntity
 67
     1
  8
0
100
AcDbLine
 10
2.277680301591384
 20
5.699669756721976
 30
0.0
 11
2.277680301591384
 21
5.856182966279209
 31
0.0
  0
LINE
  5
6C5
330
14
100
AcDbEntity
 67
     1
  8
0
100
AcDbLine
 10
2.19945468952753
 20
5.632291594825455
 30
0.0
 11
2.19945468952753
 21
5.68033030270936
 31
0.0
  0
LINE
  5
6C6
330
14
100
AcDbEntity
 67
     1
  8
0
100
AcDbLine
 10
2.160651810643241
 20
5.632291594825455
 30
0.0
 11
2.160651810643241
 21
5.68033030270936
 31
0.0
  0
LINE
  5
6C7
330
14
100
AcDbEntity
 67
     1
  8
0
100
AcDbLine
 10
2.277370374443743
 20
5.695578718373153
 30
0.0
 11
2.277680301591384
 21
5.699669756721976
 31
0.0
  0
LINE
  5
6C8
330
14
100
AcDbEntity
 67
     1
  8
0
100
AcDbLine
 10
2.276564563859886
 20
5.692789374044409
 30
0.0
 11
2.277370374443743
 21
5.695578718373153
 31
0.0
  0
LINE
  5
6C9
330
14
100
AcDbEntity
 67
     1
  8
0
100
AcDbLine
 10
2.275200884410278
 20
5.690062015145195
 30
0.0
 11
2.276564563859886
 21
5.692789374044409
 31
0.0
  0
LINE
  5
6CA
330
14
100
AcDbEntity
 67
     1
  8
0
100
AcDbLine
 10
2.273403306953977
 20
5.687520612534562
 30
0.0
 11
2.275200884410278
 21
5.690062015145195
 31
0.0
  0
LINE
  5
6CB
330
14
100
AcDbEntity
 67
     1
  8
0
100
AcDbLine
 10
2.271109846061456
 20
5.685289137071567
 30
0.0
 11
2.273403306953977
 21
5.687520612534562
 31
0.0
  0
LINE
  5
6CC
330
14
100
AcDbEntity
 67
     1
  8
0
100
AcDbLine
 10
2.268506458021295
 20
5.683367588756213
 30
0.0
 11
2.271109846061456
 21
5.685289137071567
 31
0.0
  0
LINE
  5
6CD
330
14
100
AcDbEntity
 67
     1
  8
0
100
AcDbLine
 10
2.265655128263026
 20
5.681941923877077
 30
0.0
 11
2.268506458021295
 21
5.683367588756213
 31
0.0
  0
LINE
  5
6CE
330
14
100
AcDbEntity
 67
     1
  8
0
100
AcDbLine
 10
2.262679827645698
 20
5.680950157004636
 30
0.0
 11
2.265655128263026
 21
5.681941923877077
 31
0.0
  0
LINE
  5
6CF
330
14
100
AcDbEntity
 67
     1
  8
0
100
AcDbLine
 10
2.258278862149239
 20
5.68033030270936
 30
0.0
 11
2.262679827645698
 21
5.680950157004636
 31
0.0
  0
LINE
  5
6D0
330
14
100
AcDbEntity
 67
     1
  8
0
100
AcDbLine
 10
2.258278862149239
 20
5.68033030270936
 30
0.0
 11
2.258278862149239
 21
5.68033030270936
 31
0.0
  0
LINE
  5
6D1
330
14
100
AcDbEntity
 67
     1
  8
0
100
AcDbLine
 10
2.404316534116304
 20
5.632291594825455
 30
0.0
 11
2.404316534116304
 21
5.746964639451547
 31
0.0
  0
LINE
  5
6D2
330
14
100
AcDbEntity
 67
     1
  8
0
100
AcDbLine
 10
2.365575640661544
 20
5.632291594825455
 30
0.0
 11
2.365575640661544
 21
5.746964639451547
 31
0.0
  0
LINE
  5
6D3
330
14
100
AcDbEntity
 67
     1
  8
0
100
AcDbLine
 10
2.262679827645698
 20
5.875398449432769
 30
0.0
 11
2.258278862149239
 21
5.875584405721352
 31
0.0
  0
LINE
  5
6D4
330
14
100
AcDbEntity
 67
     1
  8
0
100
AcDbLine
 10
2.265655128263026
 20
5.874592638848911
 30
0.0
 11
2.262679827645698
 21
5.875398449432769
 31
0.0
  0
LINE
  5
6D5
330
14
100
AcDbEntity
 67
     1
  8
0
100
AcDbLine
 10
2.268506458021295
 20
5.873290944828831
 30
0.0
 11
2.265655128263026
 21
5.874592638848911
 31
0.0
  0
LINE
  5
6D6
330
14
100
AcDbEntity
 67
     1
  8
0
100
AcDbLine
 10
2.271109846061456
 20
5.87149336737253
 30
0.0
 11
2.268506458021295
 21
5.873290944828831
 31
0.0
  0
LINE
  5
6D7
330
14
100
AcDbEntity
 67
     1
  8
0
100
AcDbLine
 10
2.273403306953977
 20
5.869199906480008
 30
0.0
 11
2.271109846061456
 21
5.87149336737253
 31
0.0
  0
LINE
  5
6D8
330
14
100
AcDbEntity
 67
     1
  8
0
100
AcDbLine
 10
2.275200884410278
 20
5.866534533010321
 30
0.0
 11
2.273403306953977
 21
5.869199906480008
 31
0.0
  0
LINE
  5
6D9
330
14
100
AcDbEntity
 67
     1
  8
0
100
AcDbLine
 10
2.276564563859886
 20
5.86368320325205
 30
0.0
 11
2.275200884410278
 21
5.866534533010321
 31
0.0
  0
LINE
  5
6DA
330
14
100
AcDbEntity
 67
     1
  8
0
100
AcDbLine
 10
2.277370374443743
 20
5.860645917205197
 30
0.0
 11
2.276564563859886
 21
5.86368320325205
 31
0.0
  0
LINE
  5
6DB
330
14
100
AcDbEntity
 67
     1
  8
0
100
AcDbLine
 10
2.277680301591384
 20
5.856182966279209
 30
0.0
 11
2.277370374443743
 21
5.860645917205197
 31
0.0
  0
LINE
  5
6DC
330
14
100
AcDbEntity
 67
     1
  8
0
100
AcDbLine
 10
2.277680301591384
 20
5.856182966279209
 30
0.0
 11
2.277680301591384
 21
5.856182966279209
 31
0.0
  0
LINE
  5
6DD
330
14
100
AcDbEntity
 67
     1
  8
0
100
AcDbLine
 10
2.19945468952753
 20
5.875584405721352
 30
0.0
 11
2.19945468952753
 21
5.948417285416303
 31
0.0
  0
LINE
  5
6DE
330
14
100
AcDbEntity
 67
     1
  8
0
100
AcDbLine
 10
2.160651810643241
 20
5.875584405721352
 30
0.0
 11
2.160651810643241
 21
5.948417285416303
 31
0.0
  0
LINE
  5
6DF
330
14
100
AcDbEntity
 67
     1
  8
0
100
AcDbLine
 10
2.277370374443743
 20
5.963727686509624
 30
0.0
 11
2.277680301591384
 21
5.967756739428918
 31
0.0
  0
LINE
  5
6E0
330
14
100
AcDbEntity
 67
     1
  8
0
100
AcDbLine
 10
2.276564563859886
 20
5.960938342180882
 30
0.0
 11
2.277370374443743
 21
5.963727686509624
 31
0.0
  0
LINE
  5
6E1
330
14
100
AcDbEntity
 67
     1
  8
0
100
AcDbLine
 10
2.275200884410278
 20
5.958210983281666
 30
0.0
 11
2.276564563859886
 21
5.960938342180882
 31
0.0
  0
LINE
  5
6E2
330
14
100
AcDbEntity
 67
     1
  8
0
100
AcDbLine
 10
2.273403306953977
 20
5.955669580671035
 30
0.0
 11
2.275200884410278
 21
5.958210983281666
 31
0.0
  0
LINE
  5
6E3
330
14
100
AcDbEntity
 67
     1
  8
0
100
AcDbLine
 10
2.271109846061456
 20
5.953376119778512
 30
0.0
 11
2.273403306953977
 21
5.955669580671035
 31
0.0
  0
LINE
  5
6E4
330
14
100
AcDbEntity
 67
     1
  8
0
100
AcDbLine
 10
2.268506458021295
 20
5.951454571463155
 30
0.0
 11
2.271109846061456
 21
5.953376119778512
 31
0.0
  0
LINE
  5
6E5
330
14
100
AcDbEntity
 67
     1
  8
0
100
AcDbLine
 10
2.265655128263026
 20
5.950028906584021
 30
0.0
 11
2.268506458021295
 21
5.951454571463155
 31
0.0
  0
LINE
  5
6E6
330
14
100
AcDbEntity
 67
     1
  8
0
100
AcDbLine
 10
2.262679827645698
 20
5.948975154282051
 30
0.0
 11
2.265655128263026
 21
5.950028906584021
 31
0.0
  0
LINE
  5
6E7
330
14
100
AcDbEntity
 67
     1
  8
0
100
AcDbLine
 10
2.258278862149239
 20
5.948355299986776
 30
0.0
 11
2.262679827645698
 21
5.948975154282051
 31
0.0
  0
LINE
  5
6E8
330
14
100
AcDbEntity
 67
     1
  8
0
100
AcDbLine
 10
2.258278862149239
 20
5.948355299986776
 30
0.0
 11
2.258278862149239
 21
5.948355299986776
 31
0.0
  0
LINE
  5
6E9
330
14
100
AcDbEntity
 67
     1
  8
0
100
AcDbLine
 10
2.404316534116304
 20
5.833744240790212
 30
0.0
 11
2.404316534116304
 21
5.948417285416303
 31
0.0
  0
LINE
  5
6EA
330
14
100
AcDbEntity
 67
     1
  8
0
100
AcDbLine
 10
2.365575640661544
 20
5.833744240790212
 30
0.0
 11
2.365575640661544
 21
5.948417285416303
 31
0.0
  0
LINE
  5
6EB
330
14
100
AcDbEntity
 67
     1
  8
0
100
AcDbLine
 10
2.860963193446258
 20
5.996270037011622
 30
0.0
 11
2.976566019515263
 21
5.996270037011622
 31
0.0
  0
LINE
  5
6EC
330
14
100
AcDbEntity
 67
     1
  8
0
100
AcDbLine
 10
2.861892974889173
 20
6.035010930466383
 30
0.0
 11
2.976566019515263
 21
6.035010930466383
 31
0.0
  0
LINE
  5
6ED
330
14
100
AcDbEntity
 67
     1
  8
0
100
AcDbLine
 10
2.609178378705078
 20
5.632291594825455
 30
0.0
 11
2.609178378705078
 21
5.746964639451547
 31
0.0
  0
LINE
  5
6EE
330
14
100
AcDbEntity
 67
     1
  8
0
100
AcDbLine
 10
2.57043748525032
 20
5.632291594825455
 30
0.0
 11
2.57043748525032
 21
5.746964639451547
 31
0.0
  0
LINE
  5
6EF
330
14
100
AcDbEntity
 67
     1
  8
0
100
AcDbLine
 10
2.775299329839092
 20
5.632291594825455
 30
0.0
 11
2.775299329839092
 21
5.746964639451547
 31
0.0
  0
LINE
  5
6F0
330
14
100
AcDbEntity
 67
     1
  8
0
100
AcDbLine
 10
2.814040223293852
 20
5.632291594825455
 30
0.0
 11
2.814040223293852
 21
5.746964639451547
 31
0.0
  0
LINE
  5
6F1
330
14
100
AcDbEntity
 67
     1
  8
0
100
AcDbLine
 10
2.609178378705078
 20
5.833744240790212
 30
0.0
 11
2.609178378705078
 21
5.948417285416303
 31
0.0
  0
LINE
  5
6F2
330
14
100
AcDbEntity
 67
     1
  8
0
100
AcDbLine
 10
2.57043748525032
 20
5.833744240790212
 30
0.0
 11
2.57043748525032
 21
5.948417285416303
 31
0.0
  0
LINE
  5
6F3
330
14
100
AcDbEntity
 67
     1
  8
0
100
AcDbLine
 10
2.775299329839092
 20
5.833744240790212
 30
0.0
 11
2.775299329839092
 21
5.948417285416303
 31
0.0
  0
LINE
  5
6F4
330
14
100
AcDbEntity
 67
     1
  8
0
100
AcDbLine
 10
2.814040223293852
 20
5.833744240790212
 30
0.0
 11
2.814040223293852
 21
5.94928508142969
 31
0.0
  0
LINE
  5
6F5
330
14
100
AcDbEntity
 67
     1
  8
0
100
AcDbLine
 10
2.860777237157676
 20
5.993914590689574
 30
0.0
 11
2.861892974889173
 21
6.00649763288368
 31
0.0
  0
LINE
  5
6F6
330
14
100
AcDbEntity
 67
     1
  8
0
100
AcDbLine
 10
2.858173849117516
 20
5.985360601414762
 30
0.0
 11
2.860777237157676
 21
5.993914590689574
 31
0.0
  0
LINE
  5
6F7
330
14
100
AcDbEntity
 67
     1
  8
0
100
AcDbLine
 10
2.854082810768693
 20
5.976992568428535
 30
0.0
 11
2.858173849117516
 21
5.985360601414762
 31
0.0
  0
LINE
  5
6F8
330
14
100
AcDbEntity
 67
     1
  8
0
100
AcDbLine
 10
2.848566107540736
 20
5.969244389737582
 30
0.0
 11
2.854082810768693
 21
5.976992568428535
 31
0.0
  0
LINE
  5
6F9
330
14
100
AcDbEntity
 67
     1
  8
0
100
AcDbLine
 10
2.841809695722226
 20
5.962425992489545
 30
0.0
 11
2.848566107540736
 21
5.969244389737582
 31
0.0
  0
LINE
  5
6FA
330
14
100
AcDbEntity
 67
     1
  8
0
100
AcDbLine
 10
2.833999531601747
 20
5.956847303832058
 30
0.0
 11
2.841809695722226
 21
5.962425992489545
 31
0.0
  0
LINE
  5
6FB
330
14
100
AcDbEntity
 67
     1
  8
0
100
AcDbLine
 10
2.825507527756463
 20
5.952632294624182
 30
0.0
 11
2.833999531601747
 21
5.956847303832058
 31
0.0
  0
LINE
  5
6FC
330
14
100
AcDbEntity
 67
     1
  8
0
100
AcDbLine
 10
2.816767582193068
 20
5.949842950295437
 30
0.0
 11
2.825507527756463
 21
5.952632294624182
 31
0.0
  0
LINE
  5
6FD
330
14
100
AcDbEntity
 67
     1
  8
0
100
AcDbLine
 10
2.803812627421795
 20
5.948355299986776
 30
0.0
 11
2.816767582193068
 21
5.949842950295437
 31
0.0
  0
LINE
  5
6FE
330
14
100
AcDbEntity
 67
     1
  8
0
100
AcDbLine
 10
2.803812627421795
 20
5.948355299986776
 30
0.0
 11
2.803812627421795
 21
5.948355299986776
 31
0.0
  0
LINE
  5
6FF
330
14
100
AcDbEntity
 67
     1
  8
0
100
AcDbLine
 10
3.174795423144582
 20
5.753287153263364
 30
0.0
 11
3.178018665480021
 21
5.787255168644498
 31
0.0
  0
LINE
  5
700
330
14
100
AcDbEntity
 67
     1
  8
0
100
AcDbLine
 10
3.055535456733448
 20
5.775539922463778
 30
0.0
 11
3.059626495082271
 21
5.783907955450008
 31
0.0
  0
LINE
  5
701
330
14
100
AcDbEntity
 67
     1
  8
0
100
AcDbLine
 10
3.142005130924474
 20
5.687148699957396
 30
0.0
 11
3.156819648581573
 21
5.707851833419621
 31
0.0
  0
LINE
  5
702
330
14
100
AcDbEntity
 67
     1
  8
0
100
AcDbLine
 10
3.018902067882626
 20
5.632291594825455
 30
0.0
 11
3.018902067882626
 21
5.748576260619265
 31
0.0
  0
LINE
  5
703
330
14
100
AcDbEntity
 67
     1
  8
0
100
AcDbLine
 10
2.980161174427866
 20
5.632291594825455
 30
0.0
 11
2.980161174427866
 21
5.746964639451547
 31
0.0
  0
LINE
  5
704
330
14
100
AcDbEntity
 67
     1
  8
0
100
AcDbLine
 10
3.123843400072881
 20
5.668986969105806
 30
0.0
 11
3.142005130924474
 21
5.687148699957396
 31
0.0
  0
LINE
  5
705
330
14
100
AcDbEntity
 67
     1
  8
0
100
AcDbLine
 10
3.103078281181128
 20
5.654172451448705
 30
0.0
 11
3.123843400072881
 21
5.668986969105806
 31
0.0
  0
LINE
  5
706
330
14
100
AcDbEntity
 67
     1
  8
0
100
AcDbLine
 10
3.080577570262605
 20
5.643077059563262
 30
0.0
 11
3.103078281181128
 21
5.654172451448705
 31
0.0
  0
LINE
  5
707
330
14
100
AcDbEntity
 67
     1
  8
0
100
AcDbLine
 10
3.057395019619278
 20
5.635824764308531
 30
0.0
 11
3.080577570262605
 21
5.643077059563262
 31
0.0
  0
LINE
  5
708
330
14
100
AcDbEntity
 67
     1
  8
0
100
AcDbLine
 10
3.023055091660978
 20
5.632291594825455
 30
0.0
 11
3.057395019619278
 21
5.635824764308531
 31
0.0
  0
LINE
  5
709
330
14
100
AcDbEntity
 67
     1
  8
0
100
AcDbLine
 10
3.023055091660978
 20
5.632291594825455
 30
0.0
 11
3.023055091660978
 21
5.632291594825455
 31
0.0
  0
LINE
  5
70A
330
14
100
AcDbEntity
 67
     1
  8
0
100
AcDbLine
 10
3.05001875350549
 20
5.767791743772827
 30
0.0
 11
3.055535456733448
 21
5.775539922463778
 31
0.0
  0
LINE
  5
70B
330
14
100
AcDbEntity
 67
     1
  8
0
100
AcDbLine
 10
3.043200356257453
 20
5.76097334652479
 30
0.0
 11
3.05001875350549
 21
5.767791743772827
 31
0.0
  0
LINE
  5
70C
330
14
100
AcDbEntity
 67
     1
  8
0
100
AcDbLine
 10
3.035390192136973
 20
5.755394657867303
 30
0.0
 11
3.043200356257453
 21
5.76097334652479
 31
0.0
  0
LINE
  5
70D
330
14
100
AcDbEntity
 67
     1
  8
0
100
AcDbLine
 10
3.026960173721216
 20
5.751179648659426
 30
0.0
 11
3.035390192136973
 21
5.755394657867303
 31
0.0
  0
LINE
  5
70E
330
14
100
AcDbEntity
 67
     1
  8
0
100
AcDbLine
 10
3.018158242728294
 20
5.748390304330682
 30
0.0
 11
3.026960173721216
 21
5.751179648659426
 31
0.0
  0
LINE
  5
70F
330
14
100
AcDbEntity
 67
     1
  8
0
100
AcDbLine
 10
3.005203287957022
 20
5.74690265402202
 30
0.0
 11
3.018158242728294
 21
5.748390304330682
 31
0.0
  0
LINE
  5
710
330
14
100
AcDbEntity
 67
     1
  8
0
100
AcDbLine
 10
3.005203287957022
 20
5.74690265402202
 30
0.0
 11
3.005203287957022
 21
5.74690265402202
 31
0.0
  0
LINE
  5
711
330
14
100
AcDbEntity
 67
     1
  8
0
100
AcDbLine
 10
3.167791069607964
 20
5.730228573479091
 30
0.0
 11
3.174795423144582
 21
5.753287153263364
 31
0.0
  0
LINE
  5
712
330
14
100
AcDbEntity
 67
     1
  8
0
100
AcDbLine
 10
3.156819648581573
 20
5.707851833419621
 30
0.0
 11
3.167791069607964
 21
5.730228573479091
 31
0.0
  0
LINE
  5
713
330
14
100
AcDbEntity
 67
     1
  8
0
100
AcDbLine
 10
3.063345620853928
 20
5.996270037011622
 30
0.0
 11
3.178018665480021
 21
5.996270037011622
 31
0.0
  0
LINE
  5
714
330
14
100
AcDbEntity
 67
     1
  8
0
100
AcDbLine
 10
3.063345620853928
 20
6.035010930466383
 30
0.0
 11
3.178018665480021
 21
6.035010930466383
 31
0.0
  0
LINE
  5
715
330
14
100
AcDbEntity
 67
     1
  8
0
100
AcDbLine
 10
3.061733999686211
 20
5.791408192422848
 30
0.0
 11
3.178018665480021
 21
5.791408192422848
 31
0.0
  0
LINE
  5
716
330
14
100
AcDbEntity
 67
     1
  8
0
100
AcDbLine
 10
3.063345620853928
 20
5.83014908587761
 30
0.0
 11
3.178018665480021
 21
5.83014908587761
 31
0.0
  0
LINE
  5
717
330
14
100
AcDbEntity
 67
     1
  8
0
100
AcDbLine
 10
3.06222988312243
 20
5.792461944724816
 30
0.0
 11
3.063345620853928
 21
5.805044986918924
 31
0.0
  0
LINE
  5
718
330
14
100
AcDbEntity
 67
     1
  8
0
100
AcDbLine
 10
3.059626495082271
 20
5.783907955450008
 30
0.0
 11
3.06222988312243
 21
5.792461944724816
 31
0.0
  0
LINE
  5
719
330
14
100
AcDbEntity
 67
     1
  8
0
100
AcDbLine
 10
2.970367476562504
 20
5.833682255360683
 30
0.0
 11
2.976566019515263
 21
5.839880798313446
 31
0.0
  0
LINE
  5
71A
330
14
100
AcDbEntity
 67
     1
  8
0
100
AcDbLine
 10
2.496178940676233
 20
6.81571741536672
 30
0.0
 11
2.573660727585752
 21
6.81571741536672
 31
0.0
  0
LINE
  5
71B
330
14
100
AcDbEntity
 67
     1
  8
0
100
AcDbLine
 10
2.496178940676233
 20
6.854458308821481
 30
0.0
 11
2.573660727585752
 21
6.854458308821481
 31
0.0
  0
LINE
  5
71C
330
14
100
AcDbEntity
 67
     1
  8
0
100
AcDbLine
 10
2.496178940676233
 20
6.610855570777946
 30
0.0
 11
2.573660727585752
 21
6.610855570777946
 31
0.0
  0
LINE
  5
71D
330
14
100
AcDbEntity
 67
     1
  8
0
100
AcDbLine
 10
2.496178940676233
 20
6.649596464232707
 30
0.0
 11
2.573660727585752
 21
6.649596464232707
 31
0.0
  0
LINE
  5
71E
330
14
100
AcDbEntity
 67
     1
  8
0
100
AcDbLine
 10
2.496178940676233
 20
6.405993726189172
 30
0.0
 11
2.573660727585752
 21
6.405993726189172
 31
0.0
  0
LINE
  5
71F
330
14
100
AcDbEntity
 67
     1
  8
0
100
AcDbLine
 10
2.496178940676233
 20
6.444734619643933
 30
0.0
 11
2.573660727585752
 21
6.444734619643933
 31
0.0
  0
LINE
  5
720
330
14
100
AcDbEntity
 67
     1
  8
0
100
AcDbLine
 10
2.297019755604
 20
6.149807945951531
 30
0.0
 11
2.60235998145704
 21
6.149807945951531
 31
0.0
  0
LINE
  5
721
330
14
100
AcDbEntity
 67
     1
  8
0
100
AcDbLine
 10
2.567462184632994
 20
7.023802502290926
 30
0.0
 11
1.792644315537781
 21
7.023802502290926
 31
0.0
  0
LINE
  5
722
330
14
100
AcDbEntity
 67
     1
  8
0
100
AcDbLine
 10
1.792644315537781
 20
6.236587547290195
 30
0.0
 11
2.567462184632994
 21
6.236587547290195
 31
0.0
  0
LINE
  5
723
330
14
100
AcDbEntity
 67
     1
  8
0
100
AcDbLine
 10
2.254435765518526
 20
6.555812509357422
 30
0.0
 11
2.254435765518526
 21
6.704577540223701
 31
0.0
  0
LINE
  5
724
330
14
100
AcDbEntity
 67
     1
  8
0
100
AcDbLine
 10
2.105670734652246
 20
6.704577540223701
 30
0.0
 11
2.105670734652246
 21
6.555812509357422
 31
0.0
  0
LINE
  5
725
330
14
100
AcDbEntity
 67
     1
  8
0
100
AcDbLine
 10
2.331917552428048
 20
6.536473055344806
 30
0.0
 11
2.331917552428048
 21
6.723978979665846
 31
0.0
  0
LINE
  5
726
330
14
100
AcDbEntity
 67
     1
  8
0
100
AcDbLine
 10
2.028188947742724
 20
6.723978979665846
 30
0.0
 11
2.028188947742724
 21
6.536473055344806
 31
0.0
  0
LINE
  5
727
330
14
100
AcDbEntity
 67
     1
  8
0
100
AcDbLine
 10
2.496178940676233
 20
6.372211667096619
 30
0.0
 11
2.496178940676233
 21
6.888240367914031
 31
0.0
  0
LINE
  5
728
330
14
100
AcDbEntity
 67
     1
  8
0
100
AcDbLine
 10
1.863927559494539
 20
6.888240367914031
 30
0.0
 11
1.863927559494539
 21
6.372211667096619
 31
0.0
  0
LINE
  5
729
330
14
100
AcDbEntity
 67
     1
  8
0
100
AcDbLine
 10
1.786445772585017
 20
7.017603959338168
 30
0.0
 11
1.786445772585017
 21
6.242848075672482
 31
0.0
  0
LINE
  5
72A
330
14
100
AcDbEntity
 67
     1
  8
0
100
AcDbLine
 10
2.409399339337569
 20
6.407047478491142
 30
0.0
 11
2.409399339337569
 21
6.853404556519513
 31
0.0
  0
LINE
  5
72B
330
14
100
AcDbEntity
 67
     1
  8
0
100
AcDbLine
 10
1.950707160833204
 20
6.853404556519513
 30
0.0
 11
1.950707160833204
 21
6.407047478491142
 31
0.0
  0
LINE
  5
72C
330
14
100
AcDbEntity
 67
     1
  8
0
100
AcDbLine
 10
2.105670734652246
 20
6.555812509357422
 30
0.0
 11
2.254435765518526
 21
6.555812509357422
 31
0.0
  0
LINE
  5
72D
330
14
100
AcDbEntity
 67
     1
  8
0
100
AcDbLine
 10
2.0862692952101
 20
6.478330722447902
 30
0.0
 11
2.273775219531144
 21
6.478330722447902
 31
0.0
  0
LINE
  5
72E
330
14
100
AcDbEntity
 67
     1
  8
0
100
AcDbLine
 10
1.922007906961916
 20
6.314069334199715
 30
0.0
 11
2.438036607779326
 21
6.314069334199715
 31
0.0
  0
LINE
  5
72F
330
14
100
AcDbEntity
 67
     1
  8
0
100
AcDbLine
 10
1.956905703785966
 20
6.400848935538379
 30
0.0
 11
2.403200796384808
 21
6.400848935538379
 31
0.0
  0
LINE
  5
730
330
14
100
AcDbEntity
 67
     1
  8
0
100
AcDbLine
 10
1.994530859509229
 20
6.236649532719719
 30
0.0
 11
1.994530859509229
 21
6.314131319629241
 31
0.0
  0
LINE
  5
731
330
14
100
AcDbEntity
 67
     1
  8
0
100
AcDbLine
 10
1.955789966054469
 20
6.236649532719719
 30
0.0
 11
1.955789966054469
 21
6.314131319629241
 31
0.0
  0
LINE
  5
732
330
14
100
AcDbEntity
 67
     1
  8
0
100
AcDbLine
 10
1.757808504143258
 20
6.149807945951531
 30
0.0
 11
2.063024759137245
 21
6.149807945951531
 31
0.0
  0
LINE
  5
733
330
14
100
AcDbEntity
 67
     1
  8
0
100
AcDbLine
 10
1.7451014910901
 20
6.151295596260193
 30
0.0
 11
1.757808504143258
 21
6.149807945951531
 31
0.0
  0
LINE
  5
734
330
14
100
AcDbEntity
 67
     1
  8
0
100
AcDbLine
 10
1.736485516385759
 20
6.154084940588938
 30
0.0
 11
1.7451014910901
 21
6.151295596260193
 31
0.0
  0
LINE
  5
735
330
14
100
AcDbEntity
 67
     1
  8
0
100
AcDbLine
 10
1.786445772585017
 20
6.242848075672482
 30
0.0
 11
1.792644315537781
 21
6.236587547290195
 31
0.0
  0
LINE
  5
736
330
14
100
AcDbEntity
 67
     1
  8
0
100
AcDbLine
 10
2.08211627143175
 20
6.134993428294429
 30
0.0
 11
2.082426198579391
 21
6.130468491938914
 31
0.0
  0
LINE
  5
737
330
14
100
AcDbEntity
 67
     1
  8
0
100
AcDbLine
 10
2.081310460847891
 20
6.137968728911754
 30
0.0
 11
2.08211627143175
 21
6.134993428294429
 31
0.0
  0
LINE
  5
738
330
14
100
AcDbEntity
 67
     1
  8
0
100
AcDbLine
 10
2.079946781398283
 20
6.140882044099553
 30
0.0
 11
2.081310460847891
 21
6.137968728911754
 31
0.0
  0
LINE
  5
739
330
14
100
AcDbEntity
 67
     1
  8
0
100
AcDbLine
 10
2.078149203941983
 20
6.143485432139713
 30
0.0
 11
2.079946781398283
 21
6.140882044099553
 31
0.0
  0
LINE
  5
73A
330
14
100
AcDbEntity
 67
     1
  8
0
100
AcDbLine
 10
2.075855743049461
 20
6.145778893032234
 30
0.0
 11
2.078149203941983
 21
6.143485432139713
 31
0.0
  0
LINE
  5
73B
330
14
100
AcDbEntity
 67
     1
  8
0
100
AcDbLine
 10
2.073252355009302
 20
6.147576470488536
 30
0.0
 11
2.075855743049461
 21
6.145778893032234
 31
0.0
  0
LINE
  5
73C
330
14
100
AcDbEntity
 67
     1
  8
0
100
AcDbLine
 10
2.070401025251033
 20
6.148878164508617
 30
0.0
 11
2.073252355009302
 21
6.147576470488536
 31
0.0
  0
LINE
  5
73D
330
14
100
AcDbEntity
 67
     1
  8
0
100
AcDbLine
 10
2.067425724633706
 20
6.149621989662947
 30
0.0
 11
2.070401025251033
 21
6.148878164508617
 31
0.0
  0
LINE
  5
73E
330
14
100
AcDbEntity
 67
     1
  8
0
100
AcDbLine
 10
2.063024759137245
 20
6.149807945951531
 30
0.0
 11
2.067425724633706
 21
6.149621989662947
 31
0.0
  0
LINE
  5
73F
330
14
100
AcDbEntity
 67
     1
  8
0
100
AcDbLine
 10
2.063024759137245
 20
6.149807945951531
 30
0.0
 11
2.063024759137245
 21
6.149807945951531
 31
0.0
  0
LINE
  5
740
330
14
100
AcDbEntity
 67
     1
  8
0
100
AcDbLine
 10
1.786445772585017
 20
6.405993726189172
 30
0.0
 11
1.863927559494539
 21
6.405993726189172
 31
0.0
  0
LINE
  5
741
330
14
100
AcDbEntity
 67
     1
  8
0
100
AcDbLine
 10
1.786445772585017
 20
6.444734619643933
 30
0.0
 11
1.863927559494539
 21
6.444734619643933
 31
0.0
  0
LINE
  5
742
330
14
100
AcDbEntity
 67
     1
  8
0
100
AcDbLine
 10
1.909300893908755
 20
6.315556984508378
 30
0.0
 11
1.922007906961916
 21
6.314069334199715
 31
0.0
  0
LINE
  5
743
330
14
100
AcDbEntity
 67
     1
  8
0
100
AcDbLine
 10
1.900684919204416
 20
6.31834632883712
 30
0.0
 11
1.909300893908755
 21
6.315556984508378
 31
0.0
  0
LINE
  5
744
330
14
100
AcDbEntity
 67
     1
  8
0
100
AcDbLine
 10
1.892316886218188
 20
6.322561338044999
 30
0.0
 11
1.900684919204416
 21
6.31834632883712
 31
0.0
  0
LINE
  5
745
330
14
100
AcDbEntity
 67
     1
  8
0
100
AcDbLine
 10
1.884568707527235
 20
6.328202012132011
 30
0.0
 11
1.892316886218188
 21
6.322561338044999
 31
0.0
  0
LINE
  5
746
330
14
100
AcDbEntity
 67
     1
  8
0
100
AcDbLine
 10
1.8777503102792
 20
6.335020409380049
 30
0.0
 11
1.884568707527235
 21
6.328202012132011
 31
0.0
  0
LINE
  5
747
330
14
100
AcDbEntity
 67
     1
  8
0
100
AcDbLine
 10
1.872171621621713
 20
6.342768588071002
 30
0.0
 11
1.8777503102792
 21
6.335020409380049
 31
0.0
  0
LINE
  5
748
330
14
100
AcDbEntity
 67
     1
  8
0
100
AcDbLine
 10
1.868018597843363
 20
6.351074635627702
 30
0.0
 11
1.872171621621713
 21
6.342768588071002
 31
0.0
  0
LINE
  5
749
330
14
100
AcDbEntity
 67
     1
  8
0
100
AcDbLine
 10
1.865291238944148
 20
6.359628624902514
 30
0.0
 11
1.868018597843363
 21
6.351074635627702
 31
0.0
  0
LINE
  5
74A
330
14
100
AcDbEntity
 67
     1
  8
0
100
AcDbLine
 10
1.863927559494539
 20
6.372211667096619
 30
0.0
 11
1.865291238944148
 21
6.359628624902514
 31
0.0
  0
LINE
  5
74B
330
14
100
AcDbEntity
 67
     1
  8
0
100
AcDbLine
 10
1.863927559494539
 20
6.372211667096619
 30
0.0
 11
1.863927559494539
 21
6.372211667096619
 31
0.0
  0
LINE
  5
74C
330
14
100
AcDbEntity
 67
     1
  8
0
100
AcDbLine
 10
2.073562282156941
 20
6.479818372756563
 30
0.0
 11
2.0862692952101
 21
6.478330722447902
 31
0.0
  0
LINE
  5
74D
330
14
100
AcDbEntity
 67
     1
  8
0
100
AcDbLine
 10
2.064946307452601
 20
6.482607717085306
 30
0.0
 11
2.073562282156941
 21
6.479818372756563
 31
0.0
  0
LINE
  5
74E
330
14
100
AcDbEntity
 67
     1
  8
0
100
AcDbLine
 10
2.056578274466374
 20
6.486822726293184
 30
0.0
 11
2.064946307452601
 21
6.482607717085306
 31
0.0
  0
LINE
  5
74F
330
14
100
AcDbEntity
 67
     1
  8
0
100
AcDbLine
 10
2.048830095775421
 20
6.492463400380198
 30
0.0
 11
2.056578274466374
 21
6.486822726293184
 31
0.0
  0
LINE
  5
750
330
14
100
AcDbEntity
 67
     1
  8
0
100
AcDbLine
 10
2.042011698527383
 20
6.499219812198705
 30
0.0
 11
2.048830095775421
 21
6.492463400380198
 31
0.0
  0
LINE
  5
751
330
14
100
AcDbEntity
 67
     1
  8
0
100
AcDbLine
 10
2.036433009869899
 20
6.50696799088966
 30
0.0
 11
2.042011698527383
 21
6.499219812198705
 31
0.0
  0
LINE
  5
752
330
14
100
AcDbEntity
 67
     1
  8
0
100
AcDbLine
 10
2.032279986091548
 20
6.515336023875888
 30
0.0
 11
2.036433009869899
 21
6.50696799088966
 31
0.0
  0
LINE
  5
753
330
14
100
AcDbEntity
 67
     1
  8
0
100
AcDbLine
 10
2.029552627192333
 20
6.523890013150697
 30
0.0
 11
2.032279986091548
 21
6.515336023875888
 31
0.0
  0
LINE
  5
754
330
14
100
AcDbEntity
 67
     1
  8
0
100
AcDbLine
 10
2.028188947742724
 20
6.536473055344806
 30
0.0
 11
2.029552627192333
 21
6.523890013150697
 31
0.0
  0
LINE
  5
755
330
14
100
AcDbEntity
 67
     1
  8
0
100
AcDbLine
 10
2.028188947742724
 20
6.536473055344806
 30
0.0
 11
2.028188947742724
 21
6.536473055344806
 31
0.0
  0
LINE
  5
756
330
14
100
AcDbEntity
 67
     1
  8
0
100
AcDbLine
 10
1.950707160833204
 20
6.407047478491142
 30
0.0
 11
1.956905703785966
 21
6.400848935538379
 31
0.0
  0
LINE
  5
757
330
14
100
AcDbEntity
 67
     1
  8
0
100
AcDbLine
 10
2.404316534116304
 20
6.236649532719719
 30
0.0
 11
2.404316534116304
 21
6.314131319629241
 31
0.0
  0
LINE
  5
758
330
14
100
AcDbEntity
 67
     1
  8
0
100
AcDbLine
 10
2.365575640661544
 20
6.236649532719719
 30
0.0
 11
2.365575640661544
 21
6.314131319629241
 31
0.0
  0
LINE
  5
759
330
14
100
AcDbEntity
 67
     1
  8
0
100
AcDbLine
 10
2.19945468952753
 20
6.236649532719719
 30
0.0
 11
2.19945468952753
 21
6.314131319629241
 31
0.0
  0
LINE
  5
75A
330
14
100
AcDbEntity
 67
     1
  8
0
100
AcDbLine
 10
2.160651810643241
 20
6.236649532719719
 30
0.0
 11
2.160651810643241
 21
6.314131319629241
 31
0.0
  0
LINE
  5
75B
330
14
100
AcDbEntity
 67
     1
  8
0
100
AcDbLine
 10
2.292866731825649
 20
6.149621989662947
 30
0.0
 11
2.297019755604
 21
6.149807945951531
 31
0.0
  0
LINE
  5
75C
330
14
100
AcDbEntity
 67
     1
  8
0
100
AcDbLine
 10
2.290077387496906
 20
6.148878164508617
 30
0.0
 11
2.292866731825649
 21
6.149621989662947
 31
0.0
  0
LINE
  5
75D
330
14
100
AcDbEntity
 67
     1
  8
0
100
AcDbLine
 10
2.287288043168164
 20
6.147576470488536
 30
0.0
 11
2.290077387496906
 21
6.148878164508617
 31
0.0
  0
LINE
  5
75E
330
14
100
AcDbEntity
 67
     1
  8
0
100
AcDbLine
 10
2.284746640557531
 20
6.145778893032234
 30
0.0
 11
2.287288043168164
 21
6.147576470488536
 31
0.0
  0
LINE
  5
75F
330
14
100
AcDbEntity
 67
     1
  8
0
100
AcDbLine
 10
2.282453179665009
 20
6.143485432139713
 30
0.0
 11
2.284746640557531
 21
6.145778893032234
 31
0.0
  0
LINE
  5
760
330
14
100
AcDbEntity
 67
     1
  8
0
100
AcDbLine
 10
2.280593616779181
 20
6.140882044099553
 30
0.0
 11
2.282453179665009
 21
6.143485432139713
 31
0.0
  0
LINE
  5
761
330
14
100
AcDbEntity
 67
     1
  8
0
100
AcDbLine
 10
2.279167951900046
 20
6.137968728911754
 30
0.0
 11
2.280593616779181
 21
6.140882044099553
 31
0.0
  0
LINE
  5
762
330
14
100
AcDbEntity
 67
     1
  8
0
100
AcDbLine
 10
2.278238170457131
 20
6.134993428294429
 30
0.0
 11
2.279167951900046
 21
6.137968728911754
 31
0.0
  0
LINE
  5
763
330
14
100
AcDbEntity
 67
     1
  8
0
100
AcDbLine
 10
2.277680301591384
 20
6.130468491938914
 30
0.0
 11
2.278238170457131
 21
6.134993428294429
 31
0.0
  0
LINE
  5
764
330
14
100
AcDbEntity
 67
     1
  8
0
100
AcDbLine
 10
2.277680301591384
 20
6.130468491938914
 30
0.0
 11
2.277680301591384
 21
6.130468491938914
 31
0.0
  0
LINE
  5
765
330
14
100
AcDbEntity
 67
     1
  8
0
100
AcDbLine
 10
2.33080181469655
 20
6.523890013150697
 30
0.0
 11
2.331917552428048
 21
6.536473055344806
 31
0.0
  0
LINE
  5
766
330
14
100
AcDbEntity
 67
     1
  8
0
100
AcDbLine
 10
2.328198426656392
 20
6.515336023875888
 30
0.0
 11
2.33080181469655
 21
6.523890013150697
 31
0.0
  0
LINE
  5
767
330
14
100
AcDbEntity
 67
     1
  8
0
100
AcDbLine
 10
2.324107388307568
 20
6.50696799088966
 30
0.0
 11
2.328198426656392
 21
6.515336023875888
 31
0.0
  0
LINE
  5
768
330
14
100
AcDbEntity
 67
     1
  8
0
100
AcDbLine
 10
2.318528699650084
 20
6.499219812198705
 30
0.0
 11
2.324107388307568
 21
6.50696799088966
 31
0.0
  0
LINE
  5
769
330
14
100
AcDbEntity
 67
     1
  8
0
100
AcDbLine
 10
2.311772287831573
 20
6.492463400380198
 30
0.0
 11
2.318528699650084
 21
6.499219812198705
 31
0.0
  0
LINE
  5
76A
330
14
100
AcDbEntity
 67
     1
  8
0
100
AcDbLine
 10
2.303962123711094
 20
6.486822726293184
 30
0.0
 11
2.311772287831573
 21
6.492463400380198
 31
0.0
  0
LINE
  5
76B
330
14
100
AcDbEntity
 67
     1
  8
0
100
AcDbLine
 10
2.29547011986581
 20
6.482607717085306
 30
0.0
 11
2.303962123711094
 21
6.486822726293184
 31
0.0
  0
LINE
  5
76C
330
14
100
AcDbEntity
 67
     1
  8
0
100
AcDbLine
 10
2.286730174302415
 20
6.479818372756563
 30
0.0
 11
2.29547011986581
 21
6.482607717085306
 31
0.0
  0
LINE
  5
76D
330
14
100
AcDbEntity
 67
     1
  8
0
100
AcDbLine
 10
2.273775219531144
 20
6.478330722447902
 30
0.0
 11
2.286730174302415
 21
6.479818372756563
 31
0.0
  0
LINE
  5
76E
330
14
100
AcDbEntity
 67
     1
  8
0
100
AcDbLine
 10
2.273775219531144
 20
6.478330722447902
 30
0.0
 11
2.273775219531144
 21
6.478330722447902
 31
0.0
  0
LINE
  5
76F
330
14
100
AcDbEntity
 67
     1
  8
0
100
AcDbLine
 10
2.19945468952753
 20
6.400910920967906
 30
0.0
 11
2.19945468952753
 21
6.478392707877427
 31
0.0
  0
LINE
  5
770
330
14
100
AcDbEntity
 67
     1
  8
0
100
AcDbLine
 10
2.160651810643241
 20
6.400910920967906
 30
0.0
 11
2.160651810643241
 21
6.478392707877427
 31
0.0
  0
LINE
  5
771
330
14
100
AcDbEntity
 67
     1
  8
0
100
AcDbLine
 10
2.495063202944735
 20
6.359628624902514
 30
0.0
 11
2.496178940676233
 21
6.372211667096619
 31
0.0
  0
LINE
  5
772
330
14
100
AcDbEntity
 67
     1
  8
0
100
AcDbLine
 10
2.492459814904576
 20
6.351074635627702
 30
0.0
 11
2.495063202944735
 21
6.359628624902514
 31
0.0
  0
LINE
  5
773
330
14
100
AcDbEntity
 67
     1
  8
0
100
AcDbLine
 10
2.488368776555753
 20
6.342768588071002
 30
0.0
 11
2.492459814904576
 21
6.351074635627702
 31
0.0
  0
LINE
  5
774
330
14
100
AcDbEntity
 67
     1
  8
0
100
AcDbLine
 10
2.482852073327793
 20
6.335020409380049
 30
0.0
 11
2.488368776555753
 21
6.342768588071002
 31
0.0
  0
LINE
  5
775
330
14
100
AcDbEntity
 67
     1
  8
0
100
AcDbLine
 10
2.476033676079758
 20
6.328202012132011
 30
0.0
 11
2.482852073327793
 21
6.335020409380049
 31
0.0
  0
LINE
  5
776
330
14
100
AcDbEntity
 67
     1
  8
0
100
AcDbLine
 10
2.468223511959275
 20
6.322561338044999
 30
0.0
 11
2.476033676079758
 21
6.328202012132011
 31
0.0
  0
LINE
  5
777
330
14
100
AcDbEntity
 67
     1
  8
0
100
AcDbLine
 10
2.459731508113993
 20
6.31834632883712
 30
0.0
 11
2.468223511959275
 21
6.322561338044999
 31
0.0
  0
LINE
  5
778
330
14
100
AcDbEntity
 67
     1
  8
0
100
AcDbLine
 10
2.4509915625506
 20
6.315556984508378
 30
0.0
 11
2.459731508113993
 21
6.31834632883712
 31
0.0
  0
LINE
  5
779
330
14
100
AcDbEntity
 67
     1
  8
0
100
AcDbLine
 10
2.438036607779326
 20
6.314069334199715
 30
0.0
 11
2.4509915625506
 21
6.315556984508378
 31
0.0
  0
LINE
  5
77A
330
14
100
AcDbEntity
 67
     1
  8
0
100
AcDbLine
 10
2.438036607779326
 20
6.314069334199715
 30
0.0
 11
2.438036607779326
 21
6.314069334199715
 31
0.0
  0
LINE
  5
77B
330
14
100
AcDbEntity
 67
     1
  8
0
100
AcDbLine
 10
2.403200796384808
 20
6.400848935538379
 30
0.0
 11
2.409399339337569
 21
6.407047478491142
 31
0.0
  0
LINE
  5
77C
330
14
100
AcDbEntity
 67
     1
  8
0
100
AcDbLine
 10
2.254435765518526
 20
6.704577540223701
 30
0.0
 11
2.105670734652246
 21
6.704577540223701
 31
0.0
  0
LINE
  5
77D
330
14
100
AcDbEntity
 67
     1
  8
0
100
AcDbLine
 10
2.273775219531144
 20
6.782059327133224
 30
0.0
 11
2.0862692952101
 21
6.782059327133224
 31
0.0
  0
LINE
  5
77E
330
14
100
AcDbEntity
 67
     1
  8
0
100
AcDbLine
 10
2.438036607779326
 20
6.946320715381407
 30
0.0
 11
1.922007906961916
 21
6.946320715381407
 31
0.0
  0
LINE
  5
77F
330
14
100
AcDbEntity
 67
     1
  8
0
100
AcDbLine
 10
2.403200796384808
 20
6.859541114042744
 30
0.0
 11
1.956905703785966
 21
6.859541114042744
 31
0.0
  0
LINE
  5
780
330
14
100
AcDbEntity
 67
     1
  8
0
100
AcDbLine
 10
1.786445772585017
 20
6.81571741536672
 30
0.0
 11
1.863927559494539
 21
6.81571741536672
 31
0.0
  0
LINE
  5
781
330
14
100
AcDbEntity
 67
     1
  8
0
100
AcDbLine
 10
1.786445772585017
 20
6.610855570777946
 30
0.0
 11
1.863927559494539
 21
6.610855570777946
 31
0.0
  0
LINE
  5
782
330
14
100
AcDbEntity
 67
     1
  8
0
100
AcDbLine
 10
1.786445772585017
 20
6.649596464232707
 30
0.0
 11
1.863927559494539
 21
6.649596464232707
 31
0.0
  0
LINE
  5
783
330
14
100
AcDbEntity
 67
     1
  8
0
100
AcDbLine
 10
2.029552627192333
 20
6.737057905296174
 30
0.0
 11
2.028188947742724
 21
6.723978979665846
 31
0.0
  0
LINE
  5
784
330
14
100
AcDbEntity
 67
     1
  8
0
100
AcDbLine
 10
2.032279986091548
 20
6.74579785085957
 30
0.0
 11
2.029552627192333
 21
6.737057905296174
 31
0.0
  0
LINE
  5
785
330
14
100
AcDbEntity
 67
     1
  8
0
100
AcDbLine
 10
2.036433009869899
 20
6.754351840134378
 30
0.0
 11
2.032279986091548
 21
6.74579785085957
 31
0.0
  0
LINE
  5
786
330
14
100
AcDbEntity
 67
     1
  8
0
100
AcDbLine
 10
2.042011698527383
 20
6.762162004254858
 30
0.0
 11
2.036433009869899
 21
6.754351840134378
 31
0.0
  0
LINE
  5
787
330
14
100
AcDbEntity
 67
     1
  8
0
100
AcDbLine
 10
2.048830095775421
 20
6.768980401502897
 30
0.0
 11
2.042011698527383
 21
6.762162004254858
 31
0.0
  0
LINE
  5
788
330
14
100
AcDbEntity
 67
     1
  8
0
100
AcDbLine
 10
2.056578274466374
 20
6.774435119301327
 30
0.0
 11
2.048830095775421
 21
6.768980401502897
 31
0.0
  0
LINE
  5
789
330
14
100
AcDbEntity
 67
     1
  8
0
100
AcDbLine
 10
2.064946307452601
 20
6.77852615765015
 30
0.0
 11
2.056578274466374
 21
6.774435119301327
 31
0.0
  0
LINE
  5
78A
330
14
100
AcDbEntity
 67
     1
  8
0
100
AcDbLine
 10
2.073562282156941
 20
6.781067560260781
 30
0.0
 11
2.064946307452601
 21
6.77852615765015
 31
0.0
  0
LINE
  5
78B
330
14
100
AcDbEntity
 67
     1
  8
0
100
AcDbLine
 10
2.0862692952101
 20
6.782059327133224
 30
0.0
 11
2.073562282156941
 21
6.781067560260781
 31
0.0
  0
LINE
  5
78C
330
14
100
AcDbEntity
 67
     1
  8
0
100
AcDbLine
 10
1.950707160833204
 20
6.610855570777946
 30
0.0
 11
2.028188947742724
 21
6.610855570777946
 31
0.0
  0
LINE
  5
78D
330
14
100
AcDbEntity
 67
     1
  8
0
100
AcDbLine
 10
1.950707160833204
 20
6.649596464232707
 30
0.0
 11
2.028188947742724
 21
6.649596464232707
 31
0.0
  0
LINE
  5
78E
330
14
100
AcDbEntity
 67
     1
  8
0
100
AcDbLine
 10
1.786445772585017
 20
6.854458308821481
 30
0.0
 11
1.863927559494539
 21
6.854458308821481
 31
0.0
  0
LINE
  5
78F
330
14
100
AcDbEntity
 67
     1
  8
0
100
AcDbLine
 10
1.865291238944148
 20
6.901319293544357
 30
0.0
 11
1.863927559494539
 21
6.888240367914031
 31
0.0
  0
LINE
  5
790
330
14
100
AcDbEntity
 67
     1
  8
0
100
AcDbLine
 10
1.868018597843363
 20
6.91012122453728
 30
0.0
 11
1.865291238944148
 21
6.901319293544357
 31
0.0
  0
LINE
  5
791
330
14
100
AcDbEntity
 67
     1
  8
0
100
AcDbLine
 10
1.872171621621713
 20
6.918613228382563
 30
0.0
 11
1.868018597843363
 21
6.91012122453728
 31
0.0
  0
LINE
  5
792
330
14
100
AcDbEntity
 67
     1
  8
0
100
AcDbLine
 10
1.8777503102792
 20
6.926423392503043
 30
0.0
 11
1.872171621621713
 21
6.918613228382563
 31
0.0
  0
LINE
  5
793
330
14
100
AcDbEntity
 67
     1
  8
0
100
AcDbLine
 10
1.884568707527235
 20
6.933241789751081
 30
0.0
 11
1.8777503102792
 21
6.926423392503043
 31
0.0
  0
LINE
  5
794
330
14
100
AcDbEntity
 67
     1
  8
0
100
AcDbLine
 10
1.892316886218188
 20
6.938758492979036
 30
0.0
 11
1.884568707527235
 21
6.933241789751081
 31
0.0
  0
LINE
  5
795
330
14
100
AcDbEntity
 67
     1
  8
0
100
AcDbLine
 10
1.900684919204416
 20
6.942787545898334
 30
0.0
 11
1.892316886218188
 21
6.938758492979036
 31
0.0
  0
LINE
  5
796
330
14
100
AcDbEntity
 67
     1
  8
0
100
AcDbLine
 10
1.909300893908755
 20
6.945328948508968
 30
0.0
 11
1.900684919204416
 21
6.942787545898334
 31
0.0
  0
LINE
  5
797
330
14
100
AcDbEntity
 67
     1
  8
0
100
AcDbLine
 10
1.922007906961916
 20
6.946320715381407
 30
0.0
 11
1.909300893908755
 21
6.945328948508968
 31
0.0
  0
LINE
  5
798
330
14
100
AcDbEntity
 67
     1
  8
0
100
AcDbLine
 10
1.792644315537781
 20
7.023802502290926
 30
0.0
 11
1.786445772585017
 21
7.017603959338168
 31
0.0
  0
LINE
  5
799
330
14
100
AcDbEntity
 67
     1
  8
0
100
AcDbLine
 10
1.994530859509229
 20
6.946382700810937
 30
0.0
 11
1.994530859509229
 21
7.023864487720458
 31
0.0
  0
LINE
  5
79A
330
14
100
AcDbEntity
 67
     1
  8
0
100
AcDbLine
 10
1.955789966054469
 20
6.946382700810937
 30
0.0
 11
1.955789966054469
 21
7.023864487720458
 31
0.0
  0
LINE
  5
79B
330
14
100
AcDbEntity
 67
     1
  8
0
100
AcDbLine
 10
1.956905703785966
 20
6.859541114042744
 30
0.0
 11
1.950707160833204
 21
6.853404556519513
 31
0.0
  0
LINE
  5
79C
330
14
100
AcDbEntity
 67
     1
  8
0
100
AcDbLine
 10
2.19945468952753
 20
6.78212131256275
 30
0.0
 11
2.19945468952753
 21
6.859603099472272
 31
0.0
  0
LINE
  5
79D
330
14
100
AcDbEntity
 67
     1
  8
0
100
AcDbLine
 10
2.160651810643241
 20
6.78212131256275
 30
0.0
 11
2.160651810643241
 21
6.859603099472272
 31
0.0
  0
LINE
  5
79E
330
14
100
AcDbEntity
 67
     1
  8
0
100
AcDbLine
 10
2.331917552428048
 20
6.610855570777946
 30
0.0
 11
2.409399339337569
 21
6.610855570777946
 31
0.0
  0
LINE
  5
79F
330
14
100
AcDbEntity
 67
     1
  8
0
100
AcDbLine
 10
2.331917552428048
 20
6.649596464232707
 30
0.0
 11
2.409399339337569
 21
6.649596464232707
 31
0.0
  0
LINE
  5
7A0
330
14
100
AcDbEntity
 67
     1
  8
0
100
AcDbLine
 10
2.286730174302415
 20
6.781067560260781
 30
0.0
 11
2.273775219531144
 21
6.782059327133224
 31
0.0
  0
LINE
  5
7A1
330
14
100
AcDbEntity
 67
     1
  8
0
100
AcDbLine
 10
2.29547011986581
 20
6.77852615765015
 30
0.0
 11
2.286730174302415
 21
6.781067560260781
 31
0.0
  0
LINE
  5
7A2
330
14
100
AcDbEntity
 67
     1
  8
0
100
AcDbLine
 10
2.303962123711094
 20
6.774435119301327
 30
0.0
 11
2.29547011986581
 21
6.77852615765015
 31
0.0
  0
LINE
  5
7A3
330
14
100
AcDbEntity
 67
     1
  8
0
100
AcDbLine
 10
2.311772287831573
 20
6.768980401502897
 30
0.0
 11
2.303962123711094
 21
6.774435119301327
 31
0.0
  0
LINE
  5
7A4
330
14
100
AcDbEntity
 67
     1
  8
0
100
AcDbLine
 10
2.318528699650084
 20
6.762162004254858
 30
0.0
 11
2.311772287831573
 21
6.768980401502897
 31
0.0
  0
LINE
  5
7A5
330
14
100
AcDbEntity
 67
     1
  8
0
100
AcDbLine
 10
2.324107388307568
 20
6.754351840134378
 30
0.0
 11
2.318528699650084
 21
6.762162004254858
 31
0.0
  0
LINE
  5
7A6
330
14
100
AcDbEntity
 67
     1
  8
0
100
AcDbLine
 10
2.328198426656392
 20
6.74579785085957
 30
0.0
 11
2.324107388307568
 21
6.754351840134378
 31
0.0
  0
LINE
  5
7A7
330
14
100
AcDbEntity
 67
     1
  8
0
100
AcDbLine
 10
2.33080181469655
 20
6.737057905296174
 30
0.0
 11
2.328198426656392
 21
6.74579785085957
 31
0.0
  0
LINE
  5
7A8
330
14
100
AcDbEntity
 67
     1
  8
0
100
AcDbLine
 10
2.331917552428048
 20
6.723978979665846
 30
0.0
 11
2.33080181469655
 21
6.737057905296174
 31
0.0
  0
LINE
  5
7A9
330
14
100
AcDbEntity
 67
     1
  8
0
100
AcDbLine
 10
2.331917552428048
 20
6.723978979665846
 30
0.0
 11
2.331917552428048
 21
6.723978979665846
 31
0.0
  0
LINE
  5
7AA
330
14
100
AcDbEntity
 67
     1
  8
0
100
AcDbLine
 10
2.19945468952753
 20
6.946382700810937
 30
0.0
 11
2.19945468952753
 21
7.023864487720458
 31
0.0
  0
LINE
  5
7AB
330
14
100
AcDbEntity
 67
     1
  8
0
100
AcDbLine
 10
2.160651810643241
 20
6.946382700810937
 30
0.0
 11
2.160651810643241
 21
7.023864487720458
 31
0.0
  0
LINE
  5
7AC
330
14
100
AcDbEntity
 67
     1
  8
0
100
AcDbLine
 10
2.404316534116304
 20
6.946382700810937
 30
0.0
 11
2.404316534116304
 21
7.023864487720458
 31
0.0
  0
LINE
  5
7AD
330
14
100
AcDbEntity
 67
     1
  8
0
100
AcDbLine
 10
2.365575640661544
 20
6.946382700810937
 30
0.0
 11
2.365575640661544
 21
7.023864487720458
 31
0.0
  0
LINE
  5
7AE
330
14
100
AcDbEntity
 67
     1
  8
0
100
AcDbLine
 10
2.4509915625506
 20
6.945328948508968
 30
0.0
 11
2.438036607779326
 21
6.946320715381407
 31
0.0
  0
LINE
  5
7AF
330
14
100
AcDbEntity
 67
     1
  8
0
100
AcDbLine
 10
2.459731508113993
 20
6.942787545898334
 30
0.0
 11
2.4509915625506
 21
6.945328948508968
 31
0.0
  0
LINE
  5
7B0
330
14
100
AcDbEntity
 67
     1
  8
0
100
AcDbLine
 10
2.468223511959275
 20
6.938758492979036
 30
0.0
 11
2.459731508113993
 21
6.942787545898334
 31
0.0
  0
LINE
  5
7B1
330
14
100
AcDbEntity
 67
     1
  8
0
100
AcDbLine
 10
2.476033676079758
 20
6.933241789751081
 30
0.0
 11
2.468223511959275
 21
6.938758492979036
 31
0.0
  0
LINE
  5
7B2
330
14
100
AcDbEntity
 67
     1
  8
0
100
AcDbLine
 10
2.482852073327793
 20
6.926423392503043
 30
0.0
 11
2.476033676079758
 21
6.933241789751081
 31
0.0
  0
LINE
  5
7B3
330
14
100
AcDbEntity
 67
     1
  8
0
100
AcDbLine
 10
2.488368776555753
 20
6.918613228382563
 30
0.0
 11
2.482852073327793
 21
6.926423392503043
 31
0.0
  0
LINE
  5
7B4
330
14
100
AcDbEntity
 67
     1
  8
0
100
AcDbLine
 10
2.492459814904576
 20
6.91012122453728
 30
0.0
 11
2.488368776555753
 21
6.918613228382563
 31
0.0
  0
LINE
  5
7B5
330
14
100
AcDbEntity
 67
     1
  8
0
100
AcDbLine
 10
2.495063202944735
 20
6.901319293544357
 30
0.0
 11
2.492459814904576
 21
6.91012122453728
 31
0.0
  0
LINE
  5
7B6
330
14
100
AcDbEntity
 67
     1
  8
0
100
AcDbLine
 10
2.496178940676233
 20
6.888240367914031
 30
0.0
 11
2.495063202944735
 21
6.901319293544357
 31
0.0
  0
LINE
  5
7B7
330
14
100
AcDbEntity
 67
     1
  8
0
100
AcDbLine
 10
2.496178940676233
 20
6.888240367914031
 30
0.0
 11
2.496178940676233
 21
6.888240367914031
 31
0.0
  0
LINE
  5
7B8
330
14
100
AcDbEntity
 67
     1
  8
0
100
AcDbLine
 10
2.404688446693469
 20
6.859665084901799
 30
0.0
 11
2.403200796384808
 21
6.859541114042744
 31
0.0
  0
LINE
  5
7B9
330
14
100
AcDbEntity
 67
     1
  8
0
100
AcDbLine
 10
2.40568021356591
 20
6.859479128613218
 30
0.0
 11
2.404688446693469
 21
6.859665084901799
 31
0.0
  0
LINE
  5
7BA
330
14
100
AcDbEntity
 67
     1
  8
0
100
AcDbLine
 10
2.406609995008826
 20
6.859169201465578
 30
0.0
 11
2.40568021356591
 21
6.859479128613218
 31
0.0
  0
LINE
  5
7BB
330
14
100
AcDbEntity
 67
     1
  8
0
100
AcDbLine
 10
2.407477791022212
 20
6.858611332599831
 30
0.0
 11
2.406609995008826
 21
6.859169201465578
 31
0.0
  0
LINE
  5
7BC
330
14
100
AcDbEntity
 67
     1
  8
0
100
AcDbLine
 10
2.408221616176542
 20
6.857867507445498
 30
0.0
 11
2.407477791022212
 21
6.858611332599831
 31
0.0
  0
LINE
  5
7BD
330
14
100
AcDbEntity
 67
     1
  8
0
100
AcDbLine
 10
2.408779485042294
 20
6.856999711432112
 30
0.0
 11
2.408221616176542
 21
6.857867507445498
 31
0.0
  0
LINE
  5
7BE
330
14
100
AcDbEntity
 67
     1
  8
0
100
AcDbLine
 10
2.409151397619458
 20
6.856069929989197
 30
0.0
 11
2.408779485042294
 21
6.856999711432112
 31
0.0
  0
LINE
  5
7BF
330
14
100
AcDbEntity
 67
     1
  8
0
100
AcDbLine
 10
2.409399339337569
 20
6.855016177687228
 30
0.0
 11
2.409151397619458
 21
6.856069929989197
 31
0.0
  0
LINE
  5
7C0
330
14
100
AcDbEntity
 67
     1
  8
0
100
AcDbLine
 10
2.409399339337569
 20
6.853404556519513
 30
0.0
 11
2.409399339337569
 21
6.855016177687228
 31
0.0
  0
LINE
  5
7C1
330
14
100
AcDbEntity
 67
     1
  8
0
100
AcDbLine
 10
2.409399339337569
 20
6.853404556519513
 30
0.0
 11
2.409399339337569
 21
6.853404556519513
 31
0.0
  0
LINE
  5
7C2
330
14
100
AcDbEntity
 67
     1
  8
0
100
AcDbLine
 10
2.660440328924419
 20
6.207950278848437
 30
0.0
 11
2.660440328924419
 21
7.052501756162215
 31
0.0
  0
LINE
  5
7C3
330
14
100
AcDbEntity
 67
     1
  8
0
100
AcDbLine
 10
2.573660727585752
 20
6.242786090242954
 30
0.0
 11
2.573660727585752
 21
7.017603959338168
 31
0.0
  0
LINE
  5
7C4
330
14
100
AcDbEntity
 67
     1
  8
0
100
AcDbLine
 10
2.861892974889173
 20
6.239872775055157
 30
0.0
 11
2.976566019515263
 21
6.239872775055157
 31
0.0
  0
LINE
  5
7C5
330
14
100
AcDbEntity
 67
     1
  8
0
100
AcDbLine
 10
2.861892974889173
 20
6.405993726189172
 30
0.0
 11
2.976566019515263
 21
6.405993726189172
 31
0.0
  0
LINE
  5
7C6
330
14
100
AcDbEntity
 67
     1
  8
0
100
AcDbLine
 10
2.861892974889173
 20
6.444734619643933
 30
0.0
 11
2.976566019515263
 21
6.444734619643933
 31
0.0
  0
LINE
  5
7C7
330
14
100
AcDbEntity
 67
     1
  8
0
100
AcDbLine
 10
2.861892974889173
 20
6.201131881600398
 30
0.0
 11
2.976566019515263
 21
6.201131881600398
 31
0.0
  0
LINE
  5
7C8
330
14
100
AcDbEntity
 67
     1
  8
0
100
AcDbLine
 10
2.660440328924419
 20
6.239872775055157
 30
0.0
 11
2.775113373550509
 21
6.239872775055157
 31
0.0
  0
LINE
  5
7C9
330
14
100
AcDbEntity
 67
     1
  8
0
100
AcDbLine
 10
2.660068416347251
 20
6.201131881600398
 30
0.0
 11
2.775113373550509
 21
6.201131881600398
 31
0.0
  0
LINE
  5
7CA
330
14
100
AcDbEntity
 67
     1
  8
0
100
AcDbLine
 10
2.65932459119292
 20
6.195367236654329
 30
0.0
 11
2.660440328924419
 21
6.207950278848437
 31
0.0
  0
LINE
  5
7CB
330
14
100
AcDbEntity
 67
     1
  8
0
100
AcDbLine
 10
2.65672120315276
 20
6.186813247379517
 30
0.0
 11
2.65932459119292
 21
6.195367236654329
 31
0.0
  0
LINE
  5
7CC
330
14
100
AcDbEntity
 67
     1
  8
0
100
AcDbLine
 10
2.652630164803938
 20
6.178445214393288
 30
0.0
 11
2.65672120315276
 21
6.186813247379517
 31
0.0
  0
LINE
  5
7CD
330
14
100
AcDbEntity
 67
     1
  8
0
100
AcDbLine
 10
2.647113461575979
 20
6.170697035702338
 30
0.0
 11
2.652630164803938
 21
6.178445214393288
 31
0.0
  0
LINE
  5
7CE
330
14
100
AcDbEntity
 67
     1
  8
0
100
AcDbLine
 10
2.640295064327943
 20
6.163940623883826
 30
0.0
 11
2.647113461575979
 21
6.170697035702338
 31
0.0
  0
LINE
  5
7CF
330
14
100
AcDbEntity
 67
     1
  8
0
100
AcDbLine
 10
2.632484900207462
 20
6.158299949796814
 30
0.0
 11
2.640295064327943
 21
6.163940623883826
 31
0.0
  0
LINE
  5
7D0
330
14
100
AcDbEntity
 67
     1
  8
0
100
AcDbLine
 10
2.624054881791706
 20
6.154084940588938
 30
0.0
 11
2.632484900207462
 21
6.158299949796814
 31
0.0
  0
LINE
  5
7D1
330
14
100
AcDbEntity
 67
     1
  8
0
100
AcDbLine
 10
2.615314936228314
 20
6.151295596260193
 30
0.0
 11
2.624054881791706
 21
6.154084940588938
 31
0.0
  0
LINE
  5
7D2
330
14
100
AcDbEntity
 67
     1
  8
0
100
AcDbLine
 10
2.60235998145704
 20
6.149807945951531
 30
0.0
 11
2.615314936228314
 21
6.151295596260193
 31
0.0
  0
LINE
  5
7D3
330
14
100
AcDbEntity
 67
     1
  8
0
100
AcDbLine
 10
2.60235998145704
 20
6.149807945951531
 30
0.0
 11
2.60235998145704
 21
6.149807945951531
 31
0.0
  0
LINE
  5
7D4
330
14
100
AcDbEntity
 67
     1
  8
0
100
AcDbLine
 10
2.567462184632994
 20
6.236587547290195
 30
0.0
 11
2.573660727585752
 21
6.242786090242954
 31
0.0
  0
LINE
  5
7D5
330
14
100
AcDbEntity
 67
     1
  8
0
100
AcDbLine
 10
2.660440328924419
 20
6.405993726189172
 30
0.0
 11
2.775113373550509
 21
6.405993726189172
 31
0.0
  0
LINE
  5
7D6
330
14
100
AcDbEntity
 67
     1
  8
0
100
AcDbLine
 10
2.660440328924419
 20
6.444734619643933
 30
0.0
 11
2.775113373550509
 21
6.444734619643933
 31
0.0
  0
LINE
  5
7D7
330
14
100
AcDbEntity
 67
     1
  8
0
100
AcDbLine
 10
3.063345620853928
 20
6.239872775055157
 30
0.0
 11
3.178018665480021
 21
6.239872775055157
 31
0.0
  0
LINE
  5
7D8
330
14
100
AcDbEntity
 67
     1
  8
0
100
AcDbLine
 10
3.063345620853928
 20
6.201131881600398
 30
0.0
 11
3.178018665480021
 21
6.201131881600398
 31
0.0
  0
LINE
  5
7D9
330
14
100
AcDbEntity
 67
     1
  8
0
100
AcDbLine
 10
3.063345620853928
 20
6.405993726189172
 30
0.0
 11
3.178018665480021
 21
6.405993726189172
 31
0.0
  0
LINE
  5
7DA
330
14
100
AcDbEntity
 67
     1
  8
0
100
AcDbLine
 10
3.063345620853928
 20
6.444734619643933
 30
0.0
 11
3.178018665480021
 21
6.444734619643933
 31
0.0
  0
LINE
  5
7DB
330
14
100
AcDbEntity
 67
     1
  8
0
100
AcDbLine
 10
2.861892974889173
 20
7.020579259955495
 30
0.0
 11
2.976566019515263
 21
7.020579259955495
 31
0.0
  0
LINE
  5
7DC
330
14
100
AcDbEntity
 67
     1
  8
0
100
AcDbLine
 10
2.861892974889173
 20
7.059320153410255
 30
0.0
 11
2.976566019515263
 21
7.059320153410255
 31
0.0
  0
LINE
  5
7DD
330
14
100
AcDbEntity
 67
     1
  8
0
100
AcDbLine
 10
2.861892974889173
 20
6.81571741536672
 30
0.0
 11
2.976566019515263
 21
6.81571741536672
 31
0.0
  0
LINE
  5
7DE
330
14
100
AcDbEntity
 67
     1
  8
0
100
AcDbLine
 10
2.861892974889173
 20
6.854458308821481
 30
0.0
 11
2.976566019515263
 21
6.854458308821481
 31
0.0
  0
LINE
  5
7DF
330
14
100
AcDbEntity
 67
     1
  8
0
100
AcDbLine
 10
2.861892974889173
 20
6.610855570777946
 30
0.0
 11
2.976566019515263
 21
6.610855570777946
 31
0.0
  0
LINE
  5
7E0
330
14
100
AcDbEntity
 67
     1
  8
0
100
AcDbLine
 10
2.861892974889173
 20
6.649596464232707
 30
0.0
 11
2.976566019515263
 21
6.649596464232707
 31
0.0
  0
LINE
  5
7E1
330
14
100
AcDbEntity
 67
     1
  8
0
100
AcDbLine
 10
2.660440328924419
 20
6.81571741536672
 30
0.0
 11
2.775113373550509
 21
6.81571741536672
 31
0.0
  0
LINE
  5
7E2
330
14
100
AcDbEntity
 67
     1
  8
0
100
AcDbLine
 10
2.660440328924419
 20
6.610855570777946
 30
0.0
 11
2.775113373550509
 21
6.610855570777946
 31
0.0
  0
LINE
  5
7E3
330
14
100
AcDbEntity
 67
     1
  8
0
100
AcDbLine
 10
2.660440328924419
 20
6.649596464232707
 30
0.0
 11
2.775113373550509
 21
6.649596464232707
 31
0.0
  0
LINE
  5
7E4
330
14
100
AcDbEntity
 67
     1
  8
0
100
AcDbLine
 10
2.660440328924419
 20
7.020579259955495
 30
0.0
 11
2.775113373550509
 21
7.020579259955495
 31
0.0
  0
LINE
  5
7E5
330
14
100
AcDbEntity
 67
     1
  8
0
100
AcDbLine
 10
2.660068416347251
 20
7.059320153410255
 30
0.0
 11
2.775113373550509
 21
7.059320153410255
 31
0.0
  0
LINE
  5
7E6
330
14
100
AcDbEntity
 67
     1
  8
0
100
AcDbLine
 10
2.660440328924419
 20
6.854458308821481
 30
0.0
 11
2.775113373550509
 21
6.854458308821481
 31
0.0
  0
LINE
  5
7E7
330
14
100
AcDbEntity
 67
     1
  8
0
100
AcDbLine
 10
2.65932459119292
 20
7.065580681792543
 30
0.0
 11
2.65672120315276
 21
7.074382612785465
 31
0.0
  0
LINE
  5
7E8
330
14
100
AcDbEntity
 67
     1
  8
0
100
AcDbLine
 10
2.660440328924419
 20
7.052501756162215
 30
0.0
 11
2.65932459119292
 21
7.065580681792543
 31
0.0
  0
LINE
  5
7E9
330
14
100
AcDbEntity
 67
     1
  8
0
100
AcDbLine
 10
2.660440328924419
 20
7.052501756162215
 30
0.0
 11
2.660440328924419
 21
7.052501756162215
 31
0.0
  0
LINE
  5
7EA
330
14
100
AcDbEntity
 67
     1
  8
0
100
AcDbLine
 10
2.568949834941654
 20
7.023926473149986
 30
0.0
 11
2.567462184632994
 21
7.023802502290926
 31
0.0
  0
LINE
  5
7EB
330
14
100
AcDbEntity
 67
     1
  8
0
100
AcDbLine
 10
2.569941601814096
 20
7.023740516861401
 30
0.0
 11
2.568949834941654
 21
7.023926473149986
 31
0.0
  0
LINE
  5
7EC
330
14
100
AcDbEntity
 67
     1
  8
0
100
AcDbLine
 10
2.570933368686538
 20
7.023430589713764
 30
0.0
 11
2.569941601814096
 21
7.023740516861401
 31
0.0
  0
LINE
  5
7ED
330
14
100
AcDbEntity
 67
     1
  8
0
100
AcDbLine
 10
2.571739179270398
 20
7.022872720848012
 30
0.0
 11
2.570933368686538
 21
7.023430589713764
 31
0.0
  0
LINE
  5
7EE
330
14
100
AcDbEntity
 67
     1
  8
0
100
AcDbLine
 10
2.572483004424729
 20
7.022128895693684
 30
0.0
 11
2.571739179270398
 21
7.022872720848012
 31
0.0
  0
LINE
  5
7EF
330
14
100
AcDbEntity
 67
     1
  8
0
100
AcDbLine
 10
2.573040873290477
 20
7.021261099680297
 30
0.0
 11
2.572483004424729
 21
7.022128895693684
 31
0.0
  0
LINE
  5
7F0
330
14
100
AcDbEntity
 67
     1
  8
0
100
AcDbLine
 10
2.57347477129717
 20
7.020269332807856
 30
0.0
 11
2.573040873290477
 21
7.021261099680297
 31
0.0
  0
LINE
  5
7F1
330
14
100
AcDbEntity
 67
     1
  8
0
100
AcDbLine
 10
2.573660727585752
 20
7.019215580505886
 30
0.0
 11
2.57347477129717
 21
7.020269332807856
 31
0.0
  0
LINE
  5
7F2
330
14
100
AcDbEntity
 67
     1
  8
0
100
AcDbLine
 10
2.573660727585752
 20
7.017603959338168
 30
0.0
 11
2.573660727585752
 21
7.019215580505886
 31
0.0
  0
LINE
  5
7F3
330
14
100
AcDbEntity
 67
     1
  8
0
100
AcDbLine
 10
2.573660727585752
 20
7.017603959338168
 30
0.0
 11
2.573660727585752
 21
7.017603959338168
 31
0.0
  0
LINE
  5
7F4
330
14
100
AcDbEntity
 67
     1
  8
0
100
AcDbLine
 10
3.063345620853928
 20
6.81571741536672
 30
0.0
 11
3.178018665480021
 21
6.81571741536672
 31
0.0
  0
LINE
  5
7F5
330
14
100
AcDbEntity
 67
     1
  8
0
100
AcDbLine
 10
3.063345620853928
 20
6.610855570777946
 30
0.0
 11
3.178018665480021
 21
6.610855570777946
 31
0.0
  0
LINE
  5
7F6
330
14
100
AcDbEntity
 67
     1
  8
0
100
AcDbLine
 10
3.063345620853928
 20
6.649596464232707
 30
0.0
 11
3.178018665480021
 21
6.649596464232707
 31
0.0
  0
LINE
  5
7F7
330
14
100
AcDbEntity
 67
     1
  8
0
100
AcDbLine
 10
3.063345620853928
 20
7.020579259955495
 30
0.0
 11
3.178018665480021
 21
7.020579259955495
 31
0.0
  0
LINE
  5
7F8
330
14
100
AcDbEntity
 67
     1
  8
0
100
AcDbLine
 10
3.063345620853928
 20
7.059320153410255
 30
0.0
 11
3.178018665480021
 21
7.059320153410255
 31
0.0
  0
LINE
  5
7F9
330
14
100
AcDbEntity
 67
     1
  8
0
100
AcDbLine
 10
3.063345620853928
 20
6.854458308821481
 30
0.0
 11
3.178018665480021
 21
6.854458308821481
 31
0.0
  0
LINE
  5
7FA
330
14
100
AcDbEntity
 67
     1
  8
0
100
AcDbLine
 10
2.602297996027511
 20
7.110582103629592
 30
0.0
 11
1.757808504143258
 21
7.110582103629592
 31
0.0
  0
LINE
  5
7FB
330
14
100
AcDbEntity
 67
     1
  8
0
100
AcDbLine
 10
2.404316534116304
 20
7.513549380988632
 30
0.0
 11
2.404316534116304
 21
7.628160440185192
 31
0.0
  0
LINE
  5
7FC
330
14
100
AcDbEntity
 67
     1
  8
0
100
AcDbLine
 10
2.365575640661544
 20
7.513549380988632
 30
0.0
 11
2.365575640661544
 21
7.628160440185192
 31
0.0
  0
LINE
  5
7FD
330
14
100
AcDbEntity
 67
     1
  8
0
100
AcDbLine
 10
2.19945468952753
 20
7.513549380988632
 30
0.0
 11
2.19945468952753
 21
7.628160440185192
 31
0.0
  0
LINE
  5
7FE
330
14
100
AcDbEntity
 67
     1
  8
0
100
AcDbLine
 10
2.160651810643241
 20
7.513549380988632
 30
0.0
 11
2.160651810643241
 21
7.628160440185192
 31
0.0
  0
LINE
  5
7FF
330
14
100
AcDbEntity
 67
     1
  8
0
100
AcDbLine
 10
1.994530859509229
 20
7.513549380988632
 30
0.0
 11
1.994530859509229
 21
7.628160440185192
 31
0.0
  0
LINE
  5
800
330
14
100
AcDbEntity
 67
     1
  8
0
100
AcDbLine
 10
1.955789966054469
 20
7.513549380988632
 30
0.0
 11
1.955789966054469
 21
7.628160440185192
 31
0.0
  0
LINE
  5
801
330
14
100
AcDbEntity
 67
     1
  8
0
100
AcDbLine
 10
1.789669014920455
 20
7.513549380988632
 30
0.0
 11
1.789669014920455
 21
7.628160440185192
 31
0.0
  0
LINE
  5
802
330
14
100
AcDbEntity
 67
     1
  8
0
100
AcDbLine
 10
1.750928121465693
 20
7.513549380988632
 30
0.0
 11
1.750928121465693
 21
7.628160440185192
 31
0.0
  0
LINE
  5
803
330
14
100
AcDbEntity
 67
     1
  8
0
100
AcDbLine
 10
1.994530859509229
 20
7.312096735023877
 30
0.0
 11
1.994530859509229
 21
7.426769779649967
 31
0.0
  0
LINE
  5
804
330
14
100
AcDbEntity
 67
     1
  8
0
100
AcDbLine
 10
1.955789966054469
 20
7.312096735023877
 30
0.0
 11
1.955789966054469
 21
7.426769779649967
 31
0.0
  0
LINE
  5
805
330
14
100
AcDbEntity
 67
     1
  8
0
100
AcDbLine
 10
1.789669014920455
 20
7.312096735023877
 30
0.0
 11
1.789669014920455
 21
7.426769779649967
 31
0.0
  0
LINE
  5
806
330
14
100
AcDbEntity
 67
     1
  8
0
100
AcDbLine
 10
1.750928121465693
 20
7.312096735023877
 30
0.0
 11
1.750928121465693
 21
7.426769779649967
 31
0.0
  0
LINE
  5
807
330
14
100
AcDbEntity
 67
     1
  8
0
100
AcDbLine
 10
1.789669014920455
 20
7.110644089059121
 30
0.0
 11
1.789669014920455
 21
7.225317133685213
 31
0.0
  0
LINE
  5
808
330
14
100
AcDbEntity
 67
     1
  8
0
100
AcDbLine
 10
1.750928121465693
 20
7.110210191052427
 30
0.0
 11
1.750928121465693
 21
7.225255148255683
 31
0.0
  0
LINE
  5
809
330
14
100
AcDbEntity
 67
     1
  8
0
100
AcDbLine
 10
1.7451014910901
 20
7.109590336757153
 30
0.0
 11
1.736485516385759
 21
7.107048934146519
 31
0.0
  0
LINE
  5
80A
330
14
100
AcDbEntity
 67
     1
  8
0
100
AcDbLine
 10
1.757808504143258
 20
7.110582103629592
 30
0.0
 11
1.7451014910901
 21
7.109590336757153
 31
0.0
  0
LINE
  5
80B
330
14
100
AcDbEntity
 67
     1
  8
0
100
AcDbLine
 10
1.994530859509229
 20
7.110644089059121
 30
0.0
 11
1.994530859509229
 21
7.225317133685213
 31
0.0
  0
LINE
  5
80C
330
14
100
AcDbEntity
 67
     1
  8
0
100
AcDbLine
 10
1.955789966054469
 20
7.110644089059121
 30
0.0
 11
1.955789966054469
 21
7.225317133685213
 31
0.0
  0
LINE
  5
80D
330
14
100
AcDbEntity
 67
     1
  8
0
100
AcDbLine
 10
2.404316534116304
 20
7.312096735023877
 30
0.0
 11
2.404316534116304
 21
7.426769779649967
 31
0.0
  0
LINE
  5
80E
330
14
100
AcDbEntity
 67
     1
  8
0
100
AcDbLine
 10
2.365575640661544
 20
7.312096735023877
 30
0.0
 11
2.365575640661544
 21
7.426769779649967
 31
0.0
  0
LINE
  5
80F
330
14
100
AcDbEntity
 67
     1
  8
0
100
AcDbLine
 10
2.19945468952753
 20
7.312096735023877
 30
0.0
 11
2.19945468952753
 21
7.426769779649967
 31
0.0
  0
LINE
  5
810
330
14
100
AcDbEntity
 67
     1
  8
0
100
AcDbLine
 10
2.160651810643241
 20
7.312096735023877
 30
0.0
 11
2.160651810643241
 21
7.426769779649967
 31
0.0
  0
LINE
  5
811
330
14
100
AcDbEntity
 67
     1
  8
0
100
AcDbLine
 10
2.19945468952753
 20
7.110644089059121
 30
0.0
 11
2.19945468952753
 21
7.225317133685213
 31
0.0
  0
LINE
  5
812
330
14
100
AcDbEntity
 67
     1
  8
0
100
AcDbLine
 10
2.160651810643241
 20
7.110644089059121
 30
0.0
 11
2.160651810643241
 21
7.225317133685213
 31
0.0
  0
LINE
  5
813
330
14
100
AcDbEntity
 67
     1
  8
0
100
AcDbLine
 10
2.404316534116304
 20
7.110644089059121
 30
0.0
 11
2.404316534116304
 21
7.225317133685213
 31
0.0
  0
LINE
  5
814
330
14
100
AcDbEntity
 67
     1
  8
0
100
AcDbLine
 10
2.365575640661544
 20
7.110644089059121
 30
0.0
 11
2.365575640661544
 21
7.225317133685213
 31
0.0
  0
LINE
  5
815
330
14
100
AcDbEntity
 67
     1
  8
0
100
AcDbLine
 10
3.018902067882626
 20
7.511875774391387
 30
0.0
 11
3.018902067882626
 21
7.628160440185192
 31
0.0
  0
LINE
  5
816
330
14
100
AcDbEntity
 67
     1
  8
0
100
AcDbLine
 10
2.980161174427866
 20
7.513549380988632
 30
0.0
 11
2.980161174427866
 21
7.628160440185192
 31
0.0
  0
LINE
  5
817
330
14
100
AcDbEntity
 67
     1
  8
0
100
AcDbLine
 10
2.775299329839092
 20
7.513549380988632
 30
0.0
 11
2.775299329839092
 21
7.628160440185192
 31
0.0
  0
LINE
  5
818
330
14
100
AcDbEntity
 67
     1
  8
0
100
AcDbLine
 10
2.814040223293852
 20
7.513549380988632
 30
0.0
 11
2.814040223293852
 21
7.628160440185192
 31
0.0
  0
LINE
  5
819
330
14
100
AcDbEntity
 67
     1
  8
0
100
AcDbLine
 10
2.609178378705078
 20
7.513549380988632
 30
0.0
 11
2.609178378705078
 21
7.628160440185192
 31
0.0
  0
LINE
  5
81A
330
14
100
AcDbEntity
 67
     1
  8
0
100
AcDbLine
 10
2.57043748525032
 20
7.513549380988632
 30
0.0
 11
2.57043748525032
 21
7.628160440185192
 31
0.0
  0
LINE
  5
81B
330
14
100
AcDbEntity
 67
     1
  8
0
100
AcDbLine
 10
3.123843400072881
 20
7.592394847347762
 30
0.0
 11
3.103078281181128
 21
7.607147379575329
 31
0.0
  0
LINE
  5
81C
330
14
100
AcDbEntity
 67
     1
  8
0
100
AcDbLine
 10
2.860963193446258
 20
7.264181997999027
 30
0.0
 11
2.976566019515263
 21
7.264181997999027
 31
0.0
  0
LINE
  5
81D
330
14
100
AcDbEntity
 67
     1
  8
0
100
AcDbLine
 10
2.861892974889173
 20
7.225441104544267
 30
0.0
 11
2.976566019515263
 21
7.225441104544267
 31
0.0
  0
LINE
  5
81E
330
14
100
AcDbEntity
 67
     1
  8
0
100
AcDbLine
 10
2.775299329839092
 20
7.312096735023877
 30
0.0
 11
2.775299329839092
 21
7.426769779649967
 31
0.0
  0
LINE
  5
81F
330
14
100
AcDbEntity
 67
     1
  8
0
100
AcDbLine
 10
2.814040223293852
 20
7.311166953580962
 30
0.0
 11
2.814040223293852
 21
7.426769779649967
 31
0.0
  0
LINE
  5
820
330
14
100
AcDbEntity
 67
     1
  8
0
100
AcDbLine
 10
2.609178378705078
 20
7.312096735023877
 30
0.0
 11
2.609178378705078
 21
7.426769779649967
 31
0.0
  0
LINE
  5
821
330
14
100
AcDbEntity
 67
     1
  8
0
100
AcDbLine
 10
2.57043748525032
 20
7.312096735023877
 30
0.0
 11
2.57043748525032
 21
7.426769779649967
 31
0.0
  0
LINE
  5
822
330
14
100
AcDbEntity
 67
     1
  8
0
100
AcDbLine
 10
2.609178378705078
 20
7.110210191052427
 30
0.0
 11
2.609178378705078
 21
7.225255148255683
 31
0.0
  0
LINE
  5
823
330
14
100
AcDbEntity
 67
     1
  8
0
100
AcDbLine
 10
2.57043748525032
 20
7.110644089059121
 30
0.0
 11
2.57043748525032
 21
7.225317133685213
 31
0.0
  0
LINE
  5
824
330
14
100
AcDbEntity
 67
     1
  8
0
100
AcDbLine
 10
2.615252950798787
 20
7.109590336757153
 30
0.0
 11
2.602297996027511
 21
7.110582103629592
 31
0.0
  0
LINE
  5
825
330
14
100
AcDbEntity
 67
     1
  8
0
100
AcDbLine
 10
2.623992896362178
 20
7.107048934146519
 30
0.0
 11
2.615252950798787
 21
7.109590336757153
 31
0.0
  0
LINE
  5
826
330
14
100
AcDbEntity
 67
     1
  8
0
100
AcDbLine
 10
2.632484900207462
 20
7.103019881227224
 30
0.0
 11
2.623992896362178
 21
7.107048934146519
 31
0.0
  0
LINE
  5
827
330
14
100
AcDbEntity
 67
     1
  8
0
100
AcDbLine
 10
2.640295064327943
 20
7.097503177999267
 30
0.0
 11
2.632484900207462
 21
7.103019881227224
 31
0.0
  0
LINE
  5
828
330
14
100
AcDbEntity
 67
     1
  8
0
100
AcDbLine
 10
2.647113461575979
 20
7.090684780751226
 30
0.0
 11
2.640295064327943
 21
7.097503177999267
 31
0.0
  0
LINE
  5
829
330
14
100
AcDbEntity
 67
     1
  8
0
100
AcDbLine
 10
2.652630164803938
 20
7.082874616630749
 30
0.0
 11
2.647113461575979
 21
7.090684780751226
 31
0.0
  0
LINE
  5
82A
330
14
100
AcDbEntity
 67
     1
  8
0
100
AcDbLine
 10
2.816705596763539
 20
7.311042982721906
 30
0.0
 11
2.803750641992269
 21
7.312034749594348
 31
0.0
  0
LINE
  5
82B
330
14
100
AcDbEntity
 67
     1
  8
0
100
AcDbLine
 10
2.825445542326935
 20
7.308501580111276
 30
0.0
 11
2.816705596763539
 21
7.311042982721906
 31
0.0
  0
LINE
  5
82C
330
14
100
AcDbEntity
 67
     1
  8
0
100
AcDbLine
 10
2.833937546172218
 20
7.304472527191981
 30
0.0
 11
2.825445542326935
 21
7.308501580111276
 31
0.0
  0
LINE
  5
82D
330
14
100
AcDbEntity
 67
     1
  8
0
100
AcDbLine
 10
2.841747710292696
 20
7.29895582396402
 30
0.0
 11
2.833937546172218
 21
7.304472527191981
 31
0.0
  0
LINE
  5
82E
330
14
100
AcDbEntity
 67
     1
  8
0
100
AcDbLine
 10
2.848566107540736
 20
7.292137426715985
 30
0.0
 11
2.841747710292696
 21
7.29895582396402
 31
0.0
  0
LINE
  5
82F
330
14
100
AcDbEntity
 67
     1
  8
0
100
AcDbLine
 10
2.854082810768693
 20
7.284327262595508
 30
0.0
 11
2.848566107540736
 21
7.292137426715985
 31
0.0
  0
LINE
  5
830
330
14
100
AcDbEntity
 67
     1
  8
0
100
AcDbLine
 10
2.858173849117516
 20
7.275835258750222
 30
0.0
 11
2.854082810768693
 21
7.284327262595508
 31
0.0
  0
LINE
  5
831
330
14
100
AcDbEntity
 67
     1
  8
0
100
AcDbLine
 10
2.860777237157676
 20
7.2670333277573
 30
0.0
 11
2.858173849117516
 21
7.275835258750222
 31
0.0
  0
LINE
  5
832
330
14
100
AcDbEntity
 67
     1
  8
0
100
AcDbLine
 10
2.861892974889173
 20
7.253954402126972
 30
0.0
 11
2.860777237157676
 21
7.2670333277573
 31
0.0
  0
LINE
  5
833
330
14
100
AcDbEntity
 67
     1
  8
0
100
AcDbLine
 10
2.861892974889173
 20
7.253954402126972
 30
0.0
 11
2.861892974889173
 21
7.253954402126972
 31
0.0
  0
LINE
  5
834
330
14
100
AcDbEntity
 67
     1
  8
0
100
AcDbLine
 10
2.770402480906411
 20
7.225379119114741
 30
0.0
 11
2.768914830597747
 21
7.225255148255683
 31
0.0
  0
LINE
  5
835
330
14
100
AcDbEntity
 67
     1
  8
0
100
AcDbLine
 10
2.771394247778853
 20
7.225255148255683
 30
0.0
 11
2.770402480906411
 21
7.225379119114741
 31
0.0
  0
LINE
  5
836
330
14
100
AcDbEntity
 67
     1
  8
0
100
AcDbLine
 10
2.772386014651296
 20
7.224883235678522
 30
0.0
 11
2.771394247778853
 21
7.225255148255683
 31
0.0
  0
LINE
  5
837
330
14
100
AcDbEntity
 67
     1
  8
0
100
AcDbLine
 10
2.773253810664679
 20
7.224325366812768
 30
0.0
 11
2.772386014651296
 21
7.224883235678522
 31
0.0
  0
LINE
  5
838
330
14
100
AcDbEntity
 67
     1
  8
0
100
AcDbLine
 10
2.773935650389486
 20
7.223643527087967
 30
0.0
 11
2.773253810664679
 21
7.224325366812768
 31
0.0
  0
LINE
  5
839
330
14
100
AcDbEntity
 67
     1
  8
0
100
AcDbLine
 10
2.774493519255234
 20
7.222713745645052
 30
0.0
 11
2.773935650389486
 21
7.223643527087967
 31
0.0
  0
LINE
  5
83A
330
14
100
AcDbEntity
 67
     1
  8
0
100
AcDbLine
 10
2.774927417261928
 20
7.22172197877261
 30
0.0
 11
2.774493519255234
 21
7.222713745645052
 31
0.0
  0
LINE
  5
83B
330
14
100
AcDbEntity
 67
     1
  8
0
100
AcDbLine
 10
2.775113373550509
 20
7.220668226470642
 30
0.0
 11
2.774927417261928
 21
7.22172197877261
 31
0.0
  0
LINE
  5
83C
330
14
100
AcDbEntity
 67
     1
  8
0
100
AcDbLine
 10
2.775113373550509
 20
7.219056605302923
 30
0.0
 11
2.775113373550509
 21
7.220668226470642
 31
0.0
  0
LINE
  5
83D
330
14
100
AcDbEntity
 67
     1
  8
0
100
AcDbLine
 10
2.775113373550509
 20
7.219056605302923
 30
0.0
 11
2.775113373550509
 21
7.219056605302923
 31
0.0
  0
LINE
  5
83E
330
14
100
AcDbEntity
 67
     1
  8
0
100
AcDbLine
 10
3.063345620853928
 20
7.264181997999027
 30
0.0
 11
3.178018665480021
 21
7.264181997999027
 31
0.0
  0
LINE
  5
83F
330
14
100
AcDbEntity
 67
     1
  8
0
100
AcDbLine
 10
3.063345620853928
 20
7.225441104544267
 30
0.0
 11
3.178018665480021
 21
7.225441104544267
 31
0.0
  0
LINE
  5
840
330
14
100
AcDbEntity
 67
     1
  8
0
100
AcDbLine
 10
3.061733999686211
 20
7.469043842587801
 30
0.0
 11
3.178018665480021
 21
7.469043842587801
 31
0.0
  0
LINE
  5
841
330
14
100
AcDbEntity
 67
     1
  8
0
100
AcDbLine
 10
3.063345620853928
 20
7.430302949133038
 30
0.0
 11
3.178018665480021
 21
7.430302949133038
 31
0.0
  0
LINE
  5
842
330
14
100
AcDbEntity
 67
     1
  8
0
100
AcDbLine
 10
3.156819648581573
 20
7.553467997604418
 30
0.0
 11
3.142005130924474
 21
7.574233116496166
 31
0.0
  0
LINE
  5
843
330
14
100
AcDbEntity
 67
     1
  8
0
100
AcDbLine
 10
3.142005130924474
 20
7.574233116496166
 30
0.0
 11
3.123843400072881
 21
7.592394847347762
 31
0.0
  0
LINE
  5
844
330
14
100
AcDbEntity
 67
     1
  8
0
100
AcDbLine
 10
3.018158242728294
 20
7.512495628686661
 30
0.0
 11
3.005203287957022
 21
7.513487395559102
 31
0.0
  0
LINE
  5
845
330
14
100
AcDbEntity
 67
     1
  8
0
100
AcDbLine
 10
3.026960173721216
 20
7.509954226076028
 30
0.0
 11
3.018158242728294
 21
7.512495628686661
 31
0.0
  0
LINE
  5
846
330
14
100
AcDbEntity
 67
     1
  8
0
100
AcDbLine
 10
3.035390192136973
 20
7.505925173156732
 30
0.0
 11
3.026960173721216
 21
7.509954226076028
 31
0.0
  0
LINE
  5
847
330
14
100
AcDbEntity
 67
     1
  8
0
100
AcDbLine
 10
3.043200356257453
 20
7.500408469928776
 30
0.0
 11
3.035390192136973
 21
7.505925173156732
 31
0.0
  0
LINE
  5
848
330
14
100
AcDbEntity
 67
     1
  8
0
100
AcDbLine
 10
3.05001875350549
 20
7.493652058110267
 30
0.0
 11
3.043200356257453
 21
7.500408469928776
 31
0.0
  0
LINE
  5
849
330
14
100
AcDbEntity
 67
     1
  8
0
100
AcDbLine
 10
3.055535456733448
 20
7.485779908560258
 30
0.0
 11
3.05001875350549
 21
7.493652058110267
 31
0.0
  0
LINE
  5
84A
330
14
100
AcDbEntity
 67
     1
  8
0
100
AcDbLine
 10
3.059626495082271
 20
7.477287904714974
 30
0.0
 11
3.055535456733448
 21
7.485779908560258
 31
0.0
  0
LINE
  5
84B
330
14
100
AcDbEntity
 67
     1
  8
0
100
AcDbLine
 10
3.06222988312243
 20
7.468485973722057
 30
0.0
 11
3.059626495082271
 21
7.477287904714974
 31
0.0
  0
LINE
  5
84C
330
14
100
AcDbEntity
 67
     1
  8
0
100
AcDbLine
 10
3.063345620853928
 20
7.455407048091725
 30
0.0
 11
3.06222988312243
 21
7.468485973722057
 31
0.0
  0
LINE
  5
84D
330
14
100
AcDbEntity
 67
     1
  8
0
100
AcDbLine
 10
3.063345620853928
 20
7.455407048091725
 30
0.0
 11
3.063345620853928
 21
7.455407048091725
 31
0.0
  0
LINE
  5
84E
330
14
100
AcDbEntity
 67
     1
  8
0
100
AcDbLine
 10
2.971855126871164
 20
7.426831765079497
 30
0.0
 11
2.970367476562504
 21
7.426707794220438
 31
0.0
  0
LINE
  5
84F
330
14
100
AcDbEntity
 67
     1
  8
0
100
AcDbLine
 10
2.972908879173136
 20
7.426707794220438
 30
0.0
 11
2.971855126871164
 21
7.426831765079497
 31
0.0
  0
LINE
  5
850
330
14
100
AcDbEntity
 67
     1
  8
0
100
AcDbLine
 10
2.973838660616048
 20
7.426335881643272
 30
0.0
 11
2.972908879173136
 21
7.426707794220438
 31
0.0
  0
LINE
  5
851
330
14
100
AcDbEntity
 67
     1
  8
0
100
AcDbLine
 10
2.974706456629437
 20
7.425778012777524
 30
0.0
 11
2.973838660616048
 21
7.426335881643272
 31
0.0
  0
LINE
  5
852
330
14
100
AcDbEntity
 67
     1
  8
0
100
AcDbLine
 10
2.975388296354239
 20
7.425096173052723
 30
0.0
 11
2.974706456629437
 21
7.425778012777524
 31
0.0
  0
LINE
  5
853
330
14
100
AcDbEntity
 67
     1
  8
0
100
AcDbLine
 10
2.976008150649516
 20
7.424166391609808
 30
0.0
 11
2.975388296354239
 21
7.425096173052723
 31
0.0
  0
LINE
  5
854
330
14
100
AcDbEntity
 67
     1
  8
0
100
AcDbLine
 10
2.976380063226681
 20
7.423174624737367
 30
0.0
 11
2.976008150649516
 21
7.424166391609808
 31
0.0
  0
LINE
  5
855
330
14
100
AcDbEntity
 67
     1
  8
0
100
AcDbLine
 10
2.976566019515263
 20
7.422120872435397
 30
0.0
 11
2.976380063226681
 21
7.423174624737367
 31
0.0
  0
LINE
  5
856
330
14
100
AcDbEntity
 67
     1
  8
0
100
AcDbLine
 10
2.976566019515263
 20
7.420509251267677
 30
0.0
 11
2.976566019515263
 21
7.422120872435397
 31
0.0
  0
LINE
  5
857
330
14
100
AcDbEntity
 67
     1
  8
0
100
AcDbLine
 10
2.976566019515263
 20
7.420509251267677
 30
0.0
 11
2.976566019515263
 21
7.420509251267677
 31
0.0
  0
LINE
  5
858
330
14
100
AcDbEntity
 67
     1
  8
0
100
AcDbLine
 10
3.167791069607964
 20
7.530905301256363
 30
0.0
 11
3.156819648581573
 21
7.553467997604418
 31
0.0
  0
LINE
  5
859
330
14
100
AcDbEntity
 67
     1
  8
0
100
AcDbLine
 10
3.174795423144582
 20
7.507660765183508
 30
0.0
 11
3.167791069607964
 21
7.530905301256363
 31
0.0
  0
LINE
  5
85A
330
14
100
AcDbEntity
 67
     1
  8
0
100
AcDbLine
 10
3.178018665480021
 20
7.473196866366151
 30
0.0
 11
3.174795423144582
 21
7.507660765183508
 31
0.0
  0
LINE
  5
85B
330
14
100
AcDbEntity
 67
     1
  8
0
100
AcDbLine
 10
3.178018665480021
 20
7.473196866366151
 30
0.0
 11
3.178018665480021
 21
7.473196866366151
 31
0.0
  0
LINE
  5
85C
330
14
100
AcDbEntity
 67
     1
  8
0
100
AcDbLine
 10
3.057395019619278
 20
7.625061168708811
 30
0.0
 11
3.023055091660978
 21
7.628160440185192
 31
0.0
  0
LINE
  5
85D
330
14
100
AcDbEntity
 67
     1
  8
0
100
AcDbLine
 10
3.080577570262605
 20
7.618118800601723
 30
0.0
 11
3.057395019619278
 21
7.625061168708811
 31
0.0
  0
LINE
  5
85E
330
14
100
AcDbEntity
 67
     1
  8
0
100
AcDbLine
 10
3.103078281181128
 20
7.607147379575329
 30
0.0
 11
3.080577570262605
 21
7.618118800601723
 31
0.0
  0
ARC
  5
85F
330
14
100
AcDbEntity
 67
     1
  8
0
100
AcDbCircle
 10
1.134359053954488
 20
7.677128929512012
 30
0.0
 40
0.0719030982520357
100
AcDbArc
 50
169.3187627443935
 51
190.6812372556056
  0
LINE
  5
860
330
14
100
AcDbEntity
 67
     1
  8
0
100
AcDbLine
 10
1.063701781540963
 20
7.690455796860451
 30
0.0
 11
1.121032186606051
 21
7.690455796860451
 31
0.0
  0
LINE
  5
861
330
14
100
AcDbEntity
 67
     1
  8
0
100
AcDbLine
 10
1.121032186606051
 20
7.747786201925539
 30
0.0
 11
1.121032186606051
 21
7.690455796860451
 31
0.0
  0
LINE
  5
862
330
14
100
AcDbEntity
 67
     1
  8
0
100
AcDbLine
 10
1.147685921302926
 20
7.747786201925539
 30
0.0
 11
1.147685921302926
 21
7.690455796860451
 31
0.0
  0
LINE
  5
863
330
14
100
AcDbEntity
 67
     1
  8
0
100
AcDbLine
 10
1.063701781540963
 20
7.663802062163576
 30
0.0
 11
1.121032186606051
 21
7.663802062163576
 31
0.0
  0
ARC
  5
864
330
14
100
AcDbEntity
 67
     1
  8
0
100
AcDbCircle
 10
1.134359053954488
 20
7.677128929512012
 30
0.0
 40
0.0719030982520357
100
AcDbArc
 50
79.31876274439369
 51
100.6812372556062
  0
ARC
  5
865
330
14
100
AcDbEntity
 67
     1
  8
0
100
AcDbCircle
 10
1.134359053954488
 20
7.677128929512012
 30
0.0
 40
0.0719030982520357
100
AcDbArc
 50
349.318762744394
 51
10.68123725560649
  0
ARC
  5
866
330
14
100
AcDbEntity
 67
     1
  8
0
100
AcDbCircle
 10
1.134359053954488
 20
7.677128929512012
 30
0.0
 40
0.0719030982520357
100
AcDbArc
 50
259.3187627443938
 51
280.6812372556063
  0
LINE
  5
867
330
14
100
AcDbEntity
 67
     1
  8
0
100
AcDbLine
 10
1.147685921302926
 20
7.663802062163576
 30
0.0
 11
1.205016326368014
 21
7.663802062163576
 31
0.0
  0
LINE
  5
868
330
14
100
AcDbEntity
 67
     1
  8
0
100
AcDbLine
 10
1.121032186606051
 20
7.663802062163576
 30
0.0
 11
1.121032186606051
 21
7.606471657098487
 31
0.0
  0
LINE
  5
869
330
14
100
AcDbEntity
 67
     1
  8
0
100
AcDbLine
 10
1.147685921302926
 20
7.690455796860451
 30
0.0
 11
1.205016326368014
 21
7.690455796860451
 31
0.0
  0
LINE
  5
86A
330
14
100
AcDbEntity
 67
     1
  8
0
100
AcDbLine
 10
1.147685921302926
 20
7.663802062163576
 30
0.0
 11
1.147685921302926
 21
7.606471657098487
 31
0.0
  0
ARC
  5
86B
330
14
100
AcDbEntity
 67
     1
  8
0
100
AcDbCircle
 10
3.226987154806837
 20
7.677128929512012
 30
0.0
 40
0.0719030982520357
100
AcDbArc
 50
259.3187627443938
 51
280.6812372556063
  0
LINE
  5
86C
330
14
100
AcDbEntity
 67
     1
  8
0
100
AcDbLine
 10
3.213660287458398
 20
7.663802062163576
 30
0.0
 11
3.213660287458398
 21
7.606471657098487
 31
0.0
  0
LINE
  5
86D
330
14
100
AcDbEntity
 67
     1
  8
0
100
AcDbLine
 10
3.156329882393311
 20
7.663802062163576
 30
0.0
 11
3.213660287458398
 21
7.663802062163576
 31
0.0
  0
ARC
  5
86E
330
14
100
AcDbEntity
 67
     1
  8
0
100
AcDbCircle
 10
3.226987154806837
 20
7.677128929512012
 30
0.0
 40
0.0719030982520357
100
AcDbArc
 50
169.3187627443935
 51
190.6812372556056
  0
LINE
  5
86F
330
14
100
AcDbEntity
 67
     1
  8
0
100
AcDbLine
 10
3.156329882393311
 20
7.690455796860451
 30
0.0
 11
3.213660287458398
 21
7.690455796860451
 31
0.0
  0
LINE
  5
870
330
14
100
AcDbEntity
 67
     1
  8
0
100
AcDbLine
 10
3.213660287458398
 20
7.747786201925539
 30
0.0
 11
3.213660287458398
 21
7.690455796860451
 31
0.0
  0
ARC
  5
871
330
14
100
AcDbEntity
 67
     1
  8
0
100
AcDbCircle
 10
3.226987154806837
 20
7.677128929512012
 30
0.0
 40
0.0719030982520357
100
AcDbArc
 50
79.31876274439369
 51
100.6812372556062
  0
LINE
  5
872
330
14
100
AcDbEntity
 67
     1
  8
0
100
AcDbLine
 10
3.240314022155274
 20
7.747786201925539
 30
0.0
 11
3.240314022155274
 21
7.690455796860451
 31
0.0
  0
LINE
  5
873
330
14
100
AcDbEntity
 67
     1
  8
0
100
AcDbLine
 10
3.240314022155274
 20
7.690455796860451
 30
0.0
 11
3.297644427220361
 21
7.690455796860451
 31
0.0
  0
ARC
  5
874
330
14
100
AcDbEntity
 67
     1
  8
0
100
AcDbCircle
 10
3.226987154806837
 20
7.677128929512012
 30
0.0
 40
0.0719030982520357
100
AcDbArc
 50
349.318762744394
 51
10.68123725560649
  0
LINE
  5
875
330
14
100
AcDbEntity
 67
     1
  8
0
100
AcDbLine
 10
3.240314022155274
 20
7.663802062163576
 30
0.0
 11
3.297644427220361
 21
7.663802062163576
 31
0.0
  0
LINE
  5
876
330
14
100
AcDbEntity
 67
     1
  8
0
100
AcDbLine
 10
3.240314022155274
 20
7.663802062163576
 30
0.0
 11
3.240314022155274
 21
7.606471657098487
 31
0.0
  0
ARC
  5
877
330
14
100
AcDbEntity
 67
     1
  8
0
100
AcDbCircle
 10
3.226987154806837
 20
5.584500828659664
 30
0.0
 40
0.0719030982520357
100
AcDbArc
 50
259.3187627443938
 51
280.6812372556063
  0
LINE
  5
878
330
14
100
AcDbEntity
 67
     1
  8
0
100
AcDbLine
 10
3.213660287458398
 20
5.571173961311226
 30
0.0
 11
3.213660287458398
 21
5.513843556246138
 31
0.0
  0
LINE
  5
879
330
14
100
AcDbEntity
 67
     1
  8
0
100
AcDbLine
 10
3.156329882393311
 20
5.571173961311226
 30
0.0
 11
3.213660287458398
 21
5.571173961311226
 31
0.0
  0
ARC
  5
87A
330
14
100
AcDbEntity
 67
     1
  8
0
100
AcDbCircle
 10
3.226987154806837
 20
5.584500828659664
 30
0.0
 40
0.0719030982520357
100
AcDbArc
 50
169.3187627443935
 51
190.6812372556056
  0
LINE
  5
87B
330
14
100
AcDbEntity
 67
     1
  8
0
100
AcDbLine
 10
3.156329882393311
 20
5.597827696008101
 30
0.0
 11
3.213660287458398
 21
5.597827696008101
 31
0.0
  0
LINE
  5
87C
330
14
100
AcDbEntity
 67
     1
  8
0
100
AcDbLine
 10
3.213660287458398
 20
5.655158101073189
 30
0.0
 11
3.213660287458398
 21
5.597827696008101
 31
0.0
  0
ARC
  5
87D
330
14
100
AcDbEntity
 67
     1
  8
0
100
AcDbCircle
 10
3.226987154806837
 20
5.584500828659664
 30
0.0
 40
0.0719030982520357
100
AcDbArc
 50
79.31876274439369
 51
100.6812372556062
  0
LINE
  5
87E
330
14
100
AcDbEntity
 67
     1
  8
0
100
AcDbLine
 10
3.240314022155274
 20
5.655158101073189
 30
0.0
 11
3.240314022155274
 21
5.597827696008101
 31
0.0
  0
LINE
  5
87F
330
14
100
AcDbEntity
 67
     1
  8
0
100
AcDbLine
 10
3.240314022155274
 20
5.597827696008101
 30
0.0
 11
3.297644427220361
 21
5.597827696008101
 31
0.0
  0
ARC
  5
880
330
14
100
AcDbEntity
 67
     1
  8
0
100
AcDbCircle
 10
3.226987154806837
 20
5.584500828659664
 30
0.0
 40
0.0719030982520357
100
AcDbArc
 50
349.318762744394
 51
10.68123725560649
  0
LINE
  5
881
330
14
100
AcDbEntity
 67
     1
  8
0
100
AcDbLine
 10
3.240314022155274
 20
5.571173961311226
 30
0.0
 11
3.297644427220361
 21
5.571173961311226
 31
0.0
  0
LINE
  5
882
330
14
100
AcDbEntity
 67
     1
  8
0
100
AcDbLine
 10
3.240314022155274
 20
5.571173961311226
 30
0.0
 11
3.240314022155274
 21
5.513843556246138
 31
0.0
  0
ARC
  5
883
330
14
100
AcDbEntity
 67
     1
  8
0
100
AcDbCircle
 10
1.134359053954488
 20
5.584500828659664
 30
0.0
 40
0.0719030982520357
100
AcDbArc
 50
259.3187627443938
 51
280.6812372556063
  0
LINE
  5
884
330
14
100
AcDbEntity
 67
     1
  8
0
100
AcDbLine
 10
1.121032186606051
 20
5.571173961311226
 30
0.0
 11
1.121032186606051
 21
5.513843556246138
 31
0.0
  0
LINE
  5
885
330
14
100
AcDbEntity
 67
     1
  8
0
100
AcDbLine
 10
1.063701781540963
 20
5.571173961311226
 30
0.0
 11
1.121032186606051
 21
5.571173961311226
 31
0.0
  0
ARC
  5
886
330
14
100
AcDbEntity
 67
     1
  8
0
100
AcDbCircle
 10
1.134359053954488
 20
5.584500828659664
 30
0.0
 40
0.0719030982520357
100
AcDbArc
 50
169.3187627443935
 51
190.6812372556056
  0
LINE
  5
887
330
14
100
AcDbEntity
 67
     1
  8
0
100
AcDbLine
 10
1.063701781540963
 20
5.597827696008101
 30
0.0
 11
1.121032186606051
 21
5.597827696008101
 31
0.0
  0
LINE
  5
888
330
14
100
AcDbEntity
 67
     1
  8
0
100
AcDbLine
 10
1.121032186606051
 20
5.655158101073189
 30
0.0
 11
1.121032186606051
 21
5.597827696008101
 31
0.0
  0
ARC
  5
889
330
14
100
AcDbEntity
 67
     1
  8
0
100
AcDbCircle
 10
1.134359053954488
 20
5.584500828659664
 30
0.0
 40
0.0719030982520357
100
AcDbArc
 50
79.31876274439369
 51
100.6812372556062
  0
LINE
  5
88A
330
14
100
AcDbEntity
 67
     1
  8
0
100
AcDbLine
 10
1.147685921302926
 20
5.655158101073189
 30
0.0
 11
1.147685921302926
 21
5.597827696008101
 31
0.0
  0
LINE
  5
88B
330
14
100
AcDbEntity
 67
     1
  8
0
100
AcDbLine
 10
1.147685921302926
 20
5.597827696008101
 30
0.0
 11
1.205016326368014
 21
5.597827696008101
 31
0.0
  0
ARC
  5
88C
330
14
100
AcDbEntity
 67
     1
  8
0
100
AcDbCircle
 10
1.134359053954488
 20
5.584500828659664
 30
0.0
 40
0.0719030982520357
100
AcDbArc
 50
349.318762744394
 51
10.68123725560649
  0
LINE
  5
88D
330
14
100
AcDbEntity
 67
     1
  8
0
100
AcDbLine
 10
1.147685921302926
 20
5.571173961311226
 30
0.0
 11
1.205016326368014
 21
5.571173961311226
 31
0.0
  0
LINE
  5
88E
330
14
100
AcDbEntity
 67
     1
  8
0
100
AcDbLine
 10
1.147685921302926
 20
5.571173961311226
 30
0.0
 11
1.147685921302926
 21
5.513843556246138
 31
0.0
  0
LINE
  5
88F
330
14
100
AcDbEntity
 67
     1
  8
0
100
AcDbLine
 10
3.298890253058872
 20
8.034165003591088
 30
0.0
 11
4.841347151379441
 21
8.034165003591088
 31
0.0
  0
LINE
  5
890
330
14
100
AcDbEntity
 67
     1
  8
0
100
AcDbLine
 10
3.298890253058872
 20
5.226225045990037
 30
0.0
 11
4.841347151379441
 21
5.226225045990037
 31
0.0
  0
LINE
  5
891
330
14
100
AcDbEntity
 67
     1
  8
0
100
AcDbLine
 10
4.7669646359463
 20
7.848208715008237
 30
0.0
 11
4.7669646359463
 21
6.2374247970539
 31
0.0
  0
LINE
  5
892
330
14
100
AcDbEntity
 67
     1
  8
0
100
AcDbLine
 10
4.7669646359463
 20
5.412181334572888
 30
0.0
 11
4.7669646359463
 21
5.853115133982675
 31
0.0
  0
SOLID
  5
893
330
14
100
AcDbEntity
 67
     1
  8
0
100
AcDbTrace
 10
4.735971921182493
 20
7.848208715008237
 30
0.0
 11
4.79795735071011
 21
7.848208715008237
 31
0.0
 12
4.7669646359463
 22
8.034165003591088
 32
0.0
 13
4.7669646359463
 23
8.034165003591088
 33
0.0
  0
SOLID
  5
894
330
14
100
AcDbEntity
 67
     1
  8
0
100
AcDbTrace
 10
4.735971921182493
 20
5.412181334572888
 30
0.0
 11
4.79795735071011
 21
5.412181334572888
 31
0.0
 12
4.7669646359463
 22
5.226225045990037
 32
0.0
 13
4.7669646359463
 23
5.226225045990037
 33
0.0
  0
TEXT
  5
895
330
14
100
AcDbEntity
 67
     1
  8
0
100
AcDbText
 10
4.435239278924337
 20
5.964688907132385
 30
0.0
 40
0.1611621167718042
  1
4.53 
 41
0.95
 72
     1
 11
4.7669646359463
 21
6.045269965518287
 31
0.0
100
AcDbText
 73
     2
  0
LINE
  5
896
330
14
100
AcDbEntity
 67
     1
  8
0
100
AcDbLine
 10
0.7760832712848629
 20
7.749032027764047
 30
0.0
 11
0.7760832712848629
 21
8.633566145021282
 31
0.0
  0
LINE
  5
897
330
14
100
AcDbEntity
 67
     1
  8
0
100
AcDbLine
 10
3.584023228885911
 20
7.749032027764047
 30
0.0
 11
3.584023228885911
 21
8.633566145021282
 31
0.0
  0
SOLID
  5
89A
330
14
100
AcDbEntity
 67
     1
  8
0
100
AcDbTrace
 10
3.40187790710391
 20
8.590176344351949
 30
0.0
 11
3.40187790710391
 21
8.528190914824332
 31
0.0
 12
3.58783419568676
 22
8.559183629588142
 32
0.0
 13
3.58783419568676
 23
8.559183629588142
 33
0.0
  0
SOLID
  5
89B
330
14
100
AcDbEntity
 67
     1
  8
0
100
AcDbTrace
 10
0.9582285930668559
 20
8.590176344351949
 30
0.0
 11
0.9582285930668559
 21
8.528190914824332
 31
0.0
 12
0.7722723044840052
 22
8.559183629588142
 32
0.0
 13
0.7722723044840052
 23
8.559183629588142
 33
0.0
  0
TEXT
  5
89C
330
14
100
AcDbEntity
 67
     1
  8
0
100
AcDbText
 10
1.924879898530029
 20
8.478602571202239
 30
0.0
 40
0.1611621167718042
  1
4.53
 41
0.95
 72
     1
 11
2.180053250085386
 21
8.559183629588142
 31
0.0
100
AcDbText
 73
     2
  0
LINE
  5
89D
330
14
100
AcDbEntity
 67
     1
  8
0
100
AcDbLine
 10
3.587881274570308
 20
3.559662444528131
 30
0.0
 11
6.31015949718386
 21
3.559662444528131
 31
0.0
  0
LINE
  5
89E
330
14
100
AcDbEntity
 67
     1
  8
0
100
AcDbLine
 10
4.114602461981235
 20
1.292235432407901
 30
0.0
 11
6.310159497183857
 21
1.2922354324079
 31
0.0
  0
LINE
  5
89F
330
14
100
AcDbEntity
 67
     1
  8
0
100
AcDbLine
 10
6.235776981750718
 20
3.373706155945279
 30
0.0
 11
6.235776981750718
 21
2.660312895824815
 31
0.0
  0
LINE
  5
8A0
330
14
100
AcDbEntity
 67
     1
  8
0
100
AcDbLine
 10
6.235776981750718
 20
1.478191720990752
 30
0.0
 11
6.235776981750718
 21
2.191584981111216
 31
0.0
  0
SOLID
  5
8A1
330
14
100
AcDbEntity
 67
     1
  8
0
100
AcDbTrace
 10
6.204784266986909
 20
3.373706155945279
 30
0.0
 11
6.266769696514526
 21
3.373706155945279
 31
0.0
 12
6.235776981750718
 22
3.559662444528131
 32
0.0
 13
6.235776981750718
 23
3.559662444528131
 33
0.0
  0
SOLID
  5
8A2
330
14
100
AcDbEntity
 67
     1
  8
0
100
AcDbTrace
 10
6.204784266986909
 20
1.478191720990752
 30
0.0
 11
6.266769696514526
 21
1.478191720990752
 31
0.0
 12
6.235776981750718
 22
1.2922354324079
 32
0.0
 13
6.235776981750718
 23
1.2922354324079
 33
0.0
  0
TEXT
  5
8A3
330
14
100
AcDbEntity
 67
     1
  8
0
100
AcDbText
 10
6.010370526570087
 20
2.372228232877415
 30
0.0
 40
0.1611621167718042
  1
3.66
 41
0.95
100
AcDbText
  0
LINE
  5
8A4
330
14
100
AcDbEntity
 67
     1
  8
0
100
AcDbLine
 10
8.384173613241046
 20
6.995134241134405
 30
0.0
 11
8.384173613241046
 21
8.633566145021282
 31
0.0
  0
LINE
  5
8A5
330
14
100
AcDbEntity
 67
     1
  8
0
100
AcDbLine
 10
7.727128060248303
 20
7.169468261680829
 30
0.0
 11
7.727128060248303
 21
8.633566145021282
 31
0.0
  0
LINE
  5
8A6
330
14
100
AcDbEntity
 67
     1
  8
0
100
AcDbLine
 10
8.570129901823897
 20
8.559183629588142
 30
0.0
 11
8.756086190406746
 21
8.559183629588142
 31
0.0
  0
LINE
  5
8A7
330
14
100
AcDbEntity
 67
     1
  8
0
100
AcDbLine
 10
7.541171771665452
 20
8.559183629588142
 30
0.0
 11
7.355215483082601
 21
8.559183629588142
 31
0.0
  0
SOLID
  5
8A8
330
14
100
AcDbEntity
 67
     1
  8
0
100
AcDbTrace
 10
8.570129901823897
 20
8.590176344351949
 30
0.0
 11
8.570129901823897
 21
8.528190914824332
 31
0.0
 12
8.384173613241046
 22
8.559183629588142
 32
0.0
 13
8.384173613241046
 23
8.559183629588142
 33
0.0
  0
SOLID
  5
8A9
330
14
100
AcDbEntity
 67
     1
  8
0
100
AcDbTrace
 10
7.541171771665452
 20
8.590176344351949
 30
0.0
 11
7.541171771665452
 21
8.528190914824332
 31
0.0
 12
7.727128060248303
 22
8.559183629588142
 32
0.0
 13
7.727128060248303
 23
8.559183629588142
 33
0.0
  0
TEXT
  5
8AA
330
14
100
AcDbEntity
 67
     1
  8
0
100
AcDbText
 10
7.785270927854242
 20
8.478602571202239
 30
0.0
 40
0.1611621167718042
  1
1.06
 41
0.95
 72
     1
 11
8.051380280190542
 21
8.559183629588142
 31
0.0
100
AcDbText
 73
     2
  0
LINE
  5
8AB
330
14
100
AcDbEntity
 67
     1
  8
0
100
AcDbLine
 10
4.114602461981235
 20
1.292235461158238
 30
0.0
 11
5.163220164920186
 21
1.292235461158238
 31
0.0
  0
LINE
  5
8AC
330
14
100
AcDbEntity
 67
     1
  8
0
100
AcDbLine
 10
2.36614845858098
 20
1.949281014150978
 30
0.0
 11
5.163220164920186
 21
1.949281014150978
 31
0.0
  0
LINE
  5
8AD
330
14
100
AcDbEntity
 67
     1
  8
0
100
AcDbLine
 10
5.088837649487046
 20
1.106279172575386
 30
0.0
 11
5.088837649487046
 21
0.9203228839925362
 31
0.0
  0
LINE
  5
8AE
330
14
100
AcDbEntity
 67
     1
  8
0
100
AcDbLine
 10
5.088837649487046
 20
2.135237302733829
 30
0.0
 11
5.088837649487046
 21
2.32119359131668
 31
0.0
  0
SOLID
  5
8AF
330
14
100
AcDbEntity
 67
     1
  8
0
100
AcDbTrace
 10
5.057844934723238
 20
1.106279172575386
 30
0.0
 11
5.119830364250855
 21
1.106279172575386
 31
0.0
 12
5.088837649487046
 22
1.292235461158238
 32
0.0
 13
5.088837649487046
 23
1.292235461158238
 33
0.0
  0
SOLID
  5
8B0
330
14
100
AcDbEntity
 67
     1
  8
0
100
AcDbTrace
 10
5.057844934723238
 20
2.135237302733829
 30
0.0
 11
5.119830364250855
 21
2.135237302733829
 31
0.0
 12
5.088837649487046
 22
1.949281014150978
 32
0.0
 13
5.088837649487046
 23
1.949281014150978
 33
0.0
  0
TEXT
  5
8B1
330
14
100
AcDbEntity
 67
     1
  8
0
100
AcDbText
 10
4.816649569297839
 20
1.567037532064006
 30
0.0
 40
0.1611621167718042
  1
1.06
 41
0.95
100
AcDbText
  0
LINE
  5
8B2
330
14
100
AcDbEntity
 67
     1
  8
0
100
AcDbLine
 10
10.20427181629079
 20
6.911879621967315
 30
0.0
 11
10.20427181629079
 21
6.371030505505388
 31
0.0
  0
LINE
  5
8B3
330
14
100
AcDbEntity
 67
     1
  8
0
100
AcDbLine
 10
9.773521517507999
 20
6.630195024790562
 30
0.0
 11
10.4682597347089
 21
6.630195024790562
 31
0.0
  0
LINE
  5
8B4
330
14
100
AcDbEntity
 67
     1
  8
0
100
AcDbLine
 10
13.57933001763539
 20
6.630195024790562
 30
0.0
 11
12.88459180043448
 21
6.630195024790562
 31
0.0
  0
ARC
  5
8B5
330
14
100
AcDbEntity
 67
     1
  8
0
100
AcDbCircle
 10
13.07109793194308
 20
6.630195024790562
 30
0.0
 40
0.0818207669764544
100
AcDbArc
 50
90.0
 51
270.0
  0
LINE
  5
8B6
330
14
100
AcDbEntity
 67
     1
  8
0
100
AcDbLine
 10
13.08039574637222
 20
6.712015791767018
 30
0.0
 11
13.08039574637222
 21
6.548374257814107
 31
0.0
  0
ARC
  5
8B7
330
14
100
AcDbEntity
 67
     1
  8
0
100
AcDbCircle
 10
13.22606150576212
 20
6.630195024790562
 30
0.0
 40
0.0818207669764544
100
AcDbArc
 50
270.0
 51
90.0
  0
LINE
  5
8B8
330
14
100
AcDbEntity
 67
     1
  8
0
100
AcDbLine
 10
13.1485797188526
 20
6.911879621967315
 30
0.0
 11
13.1485797188526
 21
6.371030505505388
 31
0.0
  0
ARC
  5
8B9
330
14
100
AcDbEntity
 67
     1
  8
0
100
AcDbCircle
 10
13.3499755847699
 20
6.630195024790562
 30
0.0
 40
0.1921548315356126
100
AcDbArc
 50
286.6027247966999
 51
73.39727520330001
  0
LINE
  5
8BA
330
14
100
AcDbEntity
 67
     1
  8
0
100
AcDbLine
 10
13.22606150576212
 20
6.548374257814107
 30
0.0
 11
13.07109793194308
 21
6.548374257814107
 31
0.0
  0
LINE
  5
8BB
330
14
100
AcDbEntity
 67
     1
  8
0
100
AcDbLine
 10
13.07109793194308
 20
6.712015791767018
 30
0.0
 11
13.22606150576212
 21
6.712015791767018
 31
0.0
  0
LINE
  5
8BC
330
14
100
AcDbEntity
 67
     1
  8
0
100
AcDbLine
 10
12.66943234860412
 20
6.940122172428647
 30
0.0
 11
12.66943234860412
 21
6.320267877152477
 31
0.0
  0
LINE
  5
8BD
330
14
100
AcDbEntity
 67
     1
  8
0
100
AcDbLine
 10
12.66943234860412
 20
6.320267877152477
 30
0.0
 11
12.88771050947921
 21
6.320267877152477
 31
0.0
  0
LINE
  5
8BE
330
14
100
AcDbEntity
 67
     1
  8
0
100
AcDbLine
 10
12.88771050970355
 20
6.940122172428647
 30
0.0
 11
12.66943234860412
 21
6.940122172428647
 31
0.0
  0
LINE
  5
8BF
330
14
100
AcDbEntity
 67
     1
  8
0
100
AcDbLine
 10
10.20427181629079
 20
6.986262137400455
 30
0.0
 11
10.20427181629079
 21
8.612530640588277
 31
0.0
  0
LINE
  5
8C0
330
14
100
AcDbEntity
 67
     1
  8
0
100
AcDbLine
 10
13.1485797188526
 20
6.986262137400455
 30
0.0
 11
13.1485797188526
 21
8.612530640588277
 31
0.0
  0
SOLID
  5
8C3
330
14
100
AcDbEntity
 67
     1
  8
0
100
AcDbTrace
 10
12.96057227736202
 20
8.569140839918947
 30
0.0
 11
12.96057227736202
 21
8.507155410391328
 31
0.0
 12
13.14652856594487
 22
8.538148125155139
 32
0.0
 13
13.14652856594487
 23
8.538148125155139
 33
0.0
  0
SOLID
  5
8C4
330
14
100
AcDbEntity
 67
     1
  8
0
100
AcDbTrace
 10
10.39223352078295
 20
8.569140839918947
 30
0.0
 11
10.39223352078295
 21
8.507155410391328
 31
0.0
 12
10.2062772322001
 22
8.538148125155139
 32
0.0
 13
10.2062772322001
 23
8.538148125155139
 33
0.0
  0
TEXT
  5
8C5
330
14
100
AcDbEntity
 67
     1
  8
0
100
AcDbText
 10
11.34470041054972
 20
8.457567066769236
 30
0.0
 40
0.1611621167718042
  1
4.75 
 41
0.95
 72
     1
 11
11.67642576757169
 21
8.538148125155139
 31
0.0
100
AcDbText
 73
     2
  0
LINE
  5
8C6
330
14
100
AcDbEntity
 67
     1
  8
0
100
AcDbLine
 10
13.1485797188526
 20
6.31796363674463
 30
0.0
 11
13.1485797188526
 21
4.778925619348159
 31
0.0
  0
LINE
  5
8C7
330
14
100
AcDbEntity
 67
     1
  8
0
100
AcDbLine
 10
13.30788227273858
 20
6.555812509357422
 30
0.0
 11
13.30788227273858
 21
4.778925619348159
 31
0.0
  0
LINE
  5
8C8
330
14
100
AcDbEntity
 67
     1
  8
0
100
AcDbLine
 10
12.96262343026975
 20
4.853308134781298
 30
0.0
 11
12.77666714168689
 21
4.853308134781298
 31
0.0
  0
LINE
  5
8C9
330
14
100
AcDbEntity
 67
     1
  8
0
100
AcDbLine
 10
13.49383856132143
 20
4.853308134781298
 30
0.0
 11
13.67979484990428
 21
4.853308134781298
 31
0.0
  0
SOLID
  5
8CA
330
14
100
AcDbEntity
 67
     1
  8
0
100
AcDbTrace
 10
12.96262343026975
 20
4.884300849545105
 30
0.0
 11
12.96262343026975
 21
4.82231542001749
 31
0.0
 12
13.1485797188526
 22
4.853308134781298
 32
0.0
 13
13.1485797188526
 23
4.853308134781298
 33
0.0
  0
SOLID
  5
8CB
330
14
100
AcDbEntity
 67
     1
  8
0
100
AcDbTrace
 10
13.49383856132143
 20
4.884300849545105
 30
0.0
 11
13.49383856132143
 21
4.82231542001749
 31
0.0
 12
13.30788227273858
 22
4.853308134781298
 32
0.0
 13
13.30788227273858
 23
4.853308134781298
 33
0.0
  0
TEXT
  5
8CD
330
14
100
AcDbEntity
 67
     1
  8
0
100
AcDbText
 10
13.76931480913416
 20
4.772727076395396
 30
0.0
 40
0.1611621167718042
  1
2X 0.26 
 41
0.95
 72
     1
 11
14.32340551536865
 21
4.853308134781298
 31
0.0
100
AcDbText
 73
     2
  0
LINE
  5
8CE
330
14
100
AcDbEntity
 67
     1
  8
0
100
AcDbLine
 10
12.98927716496662
 20
6.555812509357422
 30
0.0
 11
12.98927716496662
 21
4.218808501062548
 31
0.0
  0
LINE
  5
8CF
330
14
100
AcDbEntity
 67
     1
  8
0
100
AcDbLine
 10
13.30788227273858
 20
6.555812509357422
 30
0.0
 11
13.30788227273858
 21
4.218808501062548
 31
0.0
  0
LINE
  5
8D0
330
14
100
AcDbEntity
 67
     1
  8
0
100
AcDbLine
 10
12.80332087638377
 20
4.293191016495687
 30
0.0
 11
12.61736458780092
 21
4.293191016495687
 31
0.0
  0
LINE
  5
8D1
330
14
100
AcDbEntity
 67
     1
  8
0
100
AcDbLine
 10
13.49383856132143
 20
4.293191016495687
 30
0.0
 11
13.67979484990428
 21
4.293191016495687
 31
0.0
  0
SOLID
  5
8D2
330
14
100
AcDbEntity
 67
     1
  8
0
100
AcDbTrace
 10
12.80332087638377
 20
4.324183731259497
 30
0.0
 11
12.80332087638377
 21
4.26219830173188
 31
0.0
 12
12.98927716496662
 22
4.293191016495687
 32
0.0
 13
12.98927716496662
 23
4.293191016495687
 33
0.0
  0
SOLID
  5
8D3
330
14
100
AcDbEntity
 67
     1
  8
0
100
AcDbTrace
 10
13.49383856132143
 20
4.324183731259497
 30
0.0
 11
13.49383856132143
 21
4.26219830173188
 31
0.0
 12
13.30788227273858
 22
4.293191016495687
 32
0.0
 13
13.30788227273858
 23
4.293191016495687
 33
0.0
  0
TEXT
  5
8D5
330
14
100
AcDbEntity
 67
     1
  8
0
100
AcDbText
 10
13.75780225363008
 20
4.212609958109785
 30
0.0
 40
0.1611621167718042
  1
2X 0.51
 41
0.95
 72
     1
 11
14.21346895283607
 21
4.293191016495687
 31
0.0
100
AcDbText
 73
     2
  0
LINE
  5
8D6
330
14
100
AcDbEntity
 67
     1
  8
0
100
AcDbLine
 10
13.35407102536468
 20
6.854457669312081
 30
0.0
 11
13.69205567660976
 21
7.646255394720052
 31
0.0
  0
LINE
  5
8D7
330
14
100
AcDbEntity
 67
     1
  8
0
100
AcDbLine
 10
13.69205567660976
 20
7.646255394720052
 30
0.0
 11
13.87801196519261
 21
7.646255394720052
 31
0.0
  0
SOLID
  5
8D8
330
14
100
AcDbEntity
 67
     1
  8
0
100
AcDbTrace
 10
13.3825754858451
 20
6.842290331840336
 30
0.0
 11
13.32556656488427
 21
6.866625006783831
 31
0.0
 12
13.28106700053419
 22
6.68343090642961
 32
0.0
 13
13.28106700053419
 23
6.68343090642961
 33
0.0
  0
TEXT
  5
8DA
330
14
100
AcDbEntity
 67
     1
  8
0
100
AcDbText
 10
13.9767816624666
 20
7.55507309384021
 30
0.0
 40
0.1611621167718042
  1
4X %%C0.26 
 41
0.95
 72
     1
 11
14.6001337069804
 21
7.635654152226112
 31
0.0
100
AcDbText
 73
     2
  0
LINE
  5
8DB
330
14
100
AcDbEntity
 67
     1
  8
0
100
AcDbLine
 10
7.639961049975092
 20
7.246063436784767
 30
0.0
 11
7.552794039701878
 21
7.095085746247691
 31
0.0
  0
LINE
  5
8DC
330
14
100
AcDbEntity
 67
     1
  8
0
100
AcDbLine
 10
7.552794039701878
 20
7.095085746247691
 30
0.0
 11
7.639961049975092
 21
6.944108055710608
 31
0.0
  0
LINE
  5
8DD
330
14
100
AcDbEntity
 67
     1
  8
0
100
AcDbLine
 10
7.639961049975092
 20
6.944108055710608
 30
0.0
 11
7.814295070521517
 21
6.944108055710608
 31
0.0
  0
LINE
  5
8DE
330
14
100
AcDbEntity
 67
     1
  8
0
100
AcDbLine
 10
7.814295070521517
 20
6.944108055710608
 30
0.0
 11
7.901462080794726
 21
7.095085746247691
 31
0.0
  0
LINE
  5
8DF
330
14
100
AcDbEntity
 67
     1
  8
0
100
AcDbLine
 10
7.901462080794726
 20
7.095085746247691
 30
0.0
 11
7.814295070521517
 21
7.246063436784767
 31
0.0
  0
LINE
  5
8E0
330
14
100
AcDbEntity
 67
     1
  8
0
100
AcDbLine
 10
7.814295070521517
 20
7.246063436784767
 30
0.0
 11
7.639961049975092
 21
7.246063436784767
 31
0.0
  0
LINE
  5
8E1
330
14
100
AcDbEntity
 67
     1
  8
0
100
AcDbLine
 10
2.126784521585091
 20
2.041545129617746
 30
0.0
 11
2.073515793084795
 21
1.949280985400641
 31
0.0
  0
LINE
  5
8E2
330
14
100
AcDbEntity
 67
     1
  8
0
100
AcDbLine
 10
2.073515793084795
 20
1.949280985400641
 30
0.0
 11
2.126784521585091
 21
1.857016841183537
 31
0.0
  0
LINE
  5
8E3
330
14
100
AcDbEntity
 67
     1
  8
0
100
AcDbLine
 10
2.126784521585091
 20
1.857016841183537
 30
0.0
 11
2.233321978585683
 21
1.857016841183537
 31
0.0
  0
LINE
  5
8E4
330
14
100
AcDbEntity
 67
     1
  8
0
100
AcDbLine
 10
2.233321978585683
 20
1.857016841183537
 30
0.0
 11
2.286590707085979
 21
1.949280985400641
 31
0.0
  0
LINE
  5
8E5
330
14
100
AcDbEntity
 67
     1
  8
0
100
AcDbLine
 10
2.286590707085979
 20
1.949280985400641
 30
0.0
 11
2.233321978585683
 21
2.041545129617746
 31
0.0
  0
LINE
  5
8E6
330
14
100
AcDbEntity
 67
     1
  8
0
100
AcDbLine
 10
2.233321978585683
 20
2.041545129617746
 30
0.0
 11
2.126784521585091
 21
2.041545129617746
 31
0.0
  0
LINE
  5
8E7
330
14
100
AcDbEntity
 67
     1
  8
0
100
AcDbLine
 10
9.949765816910019
 20
6.814338726745252
 30
0.0
 11
10.46770989178316
 21
6.940122172428647
 31
0.0
  0
LINE
  5
8E8
330
14
100
AcDbEntity
 67
     1
  8
0
100
AcDbLine
 10
9.949765816910019
 20
6.44605132283587
 30
0.0
 11
10.46770989178316
 21
6.320267877152477
 31
0.0
  0
LINE
  5
8E9
330
14
100
AcDbEntity
 67
     1
  8
0
100
AcDbLine
 10
13.40488074220435
 20
6.44605132283587
 30
0.0
 11
12.88771050947921
 21
6.320267877152477
 31
0.0
  0
LINE
  5
8EA
330
14
100
AcDbEntity
 67
     1
  8
0
100
AcDbLine
 10
13.40488074220435
 20
6.814338726745252
 30
0.0
 11
12.88771050970355
 21
6.940122172428647
 31
0.0
  0
LINE
  5
8EB
330
14
100
AcDbEntity
 67
     1
  8
0
100
AcDbLine
 10
9.815048039835922
 20
6.889765655786439
 30
0.0
 11
9.815048039835922
 21
9.084511820362395
 31
0.0
  0
LINE
  5
8EC
330
14
100
AcDbEntity
 67
     1
  8
0
100
AcDbLine
 10
13.53926204573715
 20
6.889765655786439
 30
0.0
 11
13.53926204573715
 21
9.084511820362395
 31
0.0
  0
SOLID
  5
8EF
330
14
100
AcDbEntity
 67
     1
  8
0
100
AcDbTrace
 10
10.00100432841877
 20
9.041122019693066
 30
0.0
 11
10.00100432841877
 21
8.979136590165449
 31
0.0
 12
9.815048039835922
 22
9.010129304929256
 32
0.0
 13
9.815048039835922
 23
9.010129304929256
 33
0.0
  0
SOLID
  5
8F0
330
14
100
AcDbEntity
 67
     1
  8
0
100
AcDbTrace
 10
13.35330575715431
 20
9.041122019693066
 30
0.0
 11
13.35330575715431
 21
8.979136590165449
 31
0.0
 12
13.53926204573715
 22
9.010129304929256
 32
0.0
 13
13.53926204573715
 23
9.010129304929256
 33
0.0
  0
TEXT
  5
8F1
330
14
100
AcDbEntity
 67
     1
  8
0
100
AcDbText
 10
10.60298785645896
 20
8.956408599338654
 30
0.0
 40
0.1611621167718042
  1
6.02 
 41
0.95
100
AcDbText
  0
ARC
  5
8F2
330
14
100
AcDbEntity
 67
     1
  8
0
100
AcDbCircle
 10
0.4960037068335339
 20
6.630195024790562
 30
0.0
 40
0.1921548315356126
100
AcDbArc
 50
106.6027247966999
 51
253.3972752032999
  0
LINE
  5
8F3
330
14
100
AcDbEntity
 67
     1
  8
0
100
AcDbLine
 10
0.4410985493990848
 20
6.44605132283587
 30
0.0
 11
0.7728336140975216
 21
6.365488996677409
 31
0.0
  0
LINE
  5
8F4
330
14
100
AcDbEntity
 67
     1
  8
0
100
AcDbLine
 10
0.4410985493990848
 20
6.814338726745252
 30
0.0
 11
0.7728268076432414
 21
6.894899399946737
 31
0.0
  0
LINE
  5
8F5
330
14
100
AcDbEntity
 67
     1
  8
0
100
AcDbLine
 10
3.896213474693418
 20
6.814338726745252
 30
0.0
 11
3.586516961077215
 21
6.889661496987486
 31
0.0
  0
ARC
  5
8F6
330
14
100
AcDbEntity
 67
     1
  8
0
100
AcDbCircle
 10
3.841308317258966
 20
6.630195024790562
 30
0.0
 40
0.1921548315356126
100
AcDbArc
 50
286.6027247966999
 51
73.39727520330001
  0
LINE
  5
8F7
330
14
100
AcDbEntity
 67
     1
  8
0
100
AcDbLine
 10
3.896213474693418
 20
6.44605132283587
 30
0.0
 11
3.585434465687073
 21
6.370465273745408
 31
0.0
  0
LINE
  5
8F8
330
14
100
AcDbEntity
 67
     1
  8
0
100
AcDbLine
 10
4.019908543621403
 20
1.447199006226943
 30
0.0
 11
3.364261094125491
 21
1.447199006226943
 31
0.0
  0
LINE
  5
8F9
330
14
100
AcDbEntity
 67
     1
  8
0
100
AcDbLine
 10
4.002889768918781
 20
1.292235432407901
 30
0.0
 11
3.196692031497419
 21
1.292235432407901
 31
0.0
  0
LINE
  5
8FA
330
14
100
AcDbEntity
 67
     1
  8
0
100
AcDbLine
 10
1.167676222325582
 20
1.292235432407901
 30
0.0
 11
0.3277067942374252
 21
1.292235432407901
 31
0.0
  0
LINE
  5
8FB
330
14
100
AcDbEntity
 67
     1
  8
0
100
AcDbLine
 10
0.3241512278629539
 20
1.447199006226944
 30
0.0
 11
0.9929051594664491
 21
1.447199006226944
 31
0.0
  0
TEXT
  5
8FE
330
14
100
AcDbEntity
 67
     1
  8
0
100
AcDbText
 10
9.862884162125221
 20
0.7852981131947594
 30
0.0
 40
0.2
  1
350WB
 41
0.95
100
AcDbText
  0
LINE
  5
92E
330
14
100
AcDbEntity
 67
     1
  8
0
100
AcDbLine
 10
2.898157154757527
 20
3.922899376409893
 30
0.0
 11
3.084113443340377
 21
3.922899376409893
 31
0.0
  0
SOLID
  5
92F
330
14
100
AcDbEntity
 67
     1
  8
0
100
AcDbTrace
 10
2.310027883577991
 20
2.339415865171635
 30
0.0
 11
2.253018962617165
 21
2.363750540115129
 31
0.0
 12
2.208519398267088
 22
2.180556439760909
 32
0.0
 13
2.208519398267088
 23
2.180556439760909
 33
0.0
  0
TEXT
  5
930
330
14
100
AcDbEntity
 67
     1
  8
0
100
AcDbText
 10
3.182100298048347
 20
3.71703858588556
 30
0.0
 40
0.1611621167718042
  1
THREADED OPENING
 41
0.95
 72
     1
 11
4.315799045672861
 21
3.797619644271462
 31
0.0
100
AcDbText
 73
     2
  0
LINE
  5
933
330
14
100
AcDbEntity
 67
     1
  8
0
100
AcDbLine
 10
7.890236744437473
 20
4.644913466137424
 30
0.0
 11
8.076193033020324
 21
4.644913466137424
 31
0.0
  0
SOLID
  5
934
330
14
100
AcDbEntity
 67
     1
  8
0
100
AcDbTrace
 10
7.70868064241608
 20
6.638279251941738
 30
0.0
 11
7.770396327111343
 21
6.644055733251152
 31
0.0
 12
7.722209040835477
 22
6.826314546682237
 32
0.0
 13
7.722209040835477
 23
6.826314546682237
 33
0.0
  0
TEXT
  5
935
330
14
100
AcDbEntity
 67
     1
  8
0
100
AcDbText
 10
8.143033518821374
 20
4.572542498480421
 30
0.0
 40
0.1611621167718042
  1
2X PLUGGED 3/4-14 NPT
 41
0.95
 72
     1
 11
9.725108298464585
 21
4.653123556866323
 31
0.0
100
AcDbText
 73
     2
  0
LINE
  5
93D
330
14
100
AcDbEntity
 67
     1
  8
0
100
AcDbLine
 10
2.280940533197167
 20
2.332433075295898
 30
0.0
 11
2.898157154757527
 21
3.922899376409893
 31
0.0
  0
TEXT
  5
93E
330
14
100
AcDbEntity
 67
     1
  8
0
100
AcDbText
 10
3.168397374452682
 20
3.981518054392881
 30
0.0
 40
0.1611621167718042
  1
PLUGGED 1/2-14 NPT
 41
0.95
 72
     1
 11
4.531752138477016
 21
4.062099112778783
 31
0.0
100
AcDbText
 73
     2
  0
LINE
  5
93F
330
14
100
AcDbEntity
 67
     1
  8
0
100
AcDbLine
 10
7.743798417435853
 20
6.656966367251659
 30
0.0
 11
7.883494949301492
 21
4.637286518961441
 31
0.0
  0
TEXT
  5
940
330
14
100
AcDbEntity
 67
     1
  8
0
100
AcDbText
 10
8.148717932567754
 20
4.285189652438144
 30
0.0
 40
0.1611621167718042
  1
THREADED OPENINGS
 41
0.95
 72
     1
 11
9.355323352065227
 21
4.365770710824046
 31
0.0
100
AcDbText
 73
     2
  0
LINE
  5
957
330
14
100
AcDbEntity
 67
     1
  8
0
100
AcDbLine
 10
10.38593802984058
 20
8.535737259503433
 30
0.0
 11
11.24791309771502
 21
8.535737259503433
 31
0.0
  0
LINE
  5
958
330
14
100
AcDbEntity
 67
     1
  8
0
100
AcDbLine
 10
13.02410418008447
 20
8.541336012711006
 30
0.0
 11
11.95316543074966
 21
8.541336012711006
 31
0.0
  0
LINE
  5
959
330
14
100
AcDbEntity
 67
     1
  8
0
100
AcDbLine
 10
9.980339019706264
 20
9.006066974203278
 30
0.0
 11
10.55192416095302
 21
9.006066974203278
 31
0.0
  0
LINE
  5
95A
330
14
100
AcDbEntity
 67
     1
  8
0
100
AcDbLine
 10
13.37062338083978
 20
9.011665727410848
 30
0.0
 11
11.19635836360343
 21
9.011665727410848
 31
0.0
  0
LINE
  5
95B
330
14
100
AcDbEntity
 67
     1
  8
0
100
AcDbLine
 10
0.9359379543394226
 20
8.561620297736464
 30
0.0
 11
1.887948115220708
 21
8.561620297736464
 31
0.0
  0
LINE
  5
95C
330
14
100
AcDbEntity
 67
     1
  8
0
100
AcDbLine
 10
3.441422069887593
 20
8.557933654222015
 30
0.0
 11
2.467272103629873
 21
8.557933654222015
 31
0.0
  0
ENDSEC
  0
SECTION
  2
OBJECTS
  0
DICTIONARY
  5
C
330
0
100
AcDbDictionary
281
     1
  3
ACAD_COLOR
350
FA
  3
ACAD_GROUP
350
D
  3
ACAD_LAYOUT
350
122
  3
ACAD_MATERIAL
350
D0
  3
ACAD_MLEADERSTYLE
350
11F
  3
ACAD_MLINESTYLE
350
1A
  3
ACAD_PLOTSETTINGS
350
123
  3
ACAD_PLOTSTYLENAME
350
CE
  3
ACAD_SCALELIST
350
FD
  3
ACAD_TABLESTYLE
350
FB
  3
ACAD_VISUALSTYLE
350
E9
  3
ACDB_RECOMPOSE_DATA
350
967
  3
ACDBVARIABLEDICTIONARY
350
69
  3
DWGPROPS
350
9AA
  0
DICTIONARY
  5
945
330
2
100
AcDbDictionary
280
     1
281
     1
  3
ACAD_LAYERSTATES
360
946
  0
DICTIONARY
  5
8FF
330
E
100
AcDbDictionary
280
     1
281
     1
  3
ADSK_XREC_LAYER_RECONCILED
360
900
  0
DICTIONARY
  5
901
330
52
100
AcDbDictionary
280
     1
281
     1
  3
ADSK_XREC_LAYER_RECONCILED
360
902
  0
DICTIONARY
  5
903
330
53
100
AcDbDictionary
280
     1
281
     1
  3
ADSK_XREC_LAYER_RECONCILED
360
904
  0
DICTIONARY
  5
905
330
54
100
AcDbDictionary
280
     1
281
     1
  3
ADSK_XREC_LAYER_RECONCILED
360
906
  0
DICTIONARY
  5
907
330
55
100
AcDbDictionary
280
     1
281
     1
  3
ADSK_XREC_LAYER_RECONCILED
360
908
  0
DICTIONARY
  5
909
330
56
100
AcDbDictionary
280
     1
281
     1
  3
ADSK_XREC_LAYER_RECONCILED
360
90A
  0
DICTIONARY
  5
90B
330
57
100
AcDbDictionary
280
     1
281
     1
  3
ADSK_XREC_LAYER_RECONCILED
360
90C
  0
DICTIONARY
  5
90D
330
58
100
AcDbDictionary
280
     1
281
     1
  3
ADSK_XREC_LAYER_RECONCILED
360
90E
  0
DICTIONARY
  5
90F
330
59
100
AcDbDictionary
280
     1
281
     1
  3
ADSK_XREC_LAYER_RECONCILED
360
910
  0
DICTIONARY
  5
911
330
5A
100
AcDbDictionary
280
     1
281
     1
  3
ADSK_XREC_LAYER_RECONCILED
360
912
  0
DICTIONARY
  5
913
330
5B
100
AcDbDictionary
280
     1
281
     1
  3
ADSK_XREC_LAYER_RECONCILED
360
914
  0
DICTIONARY
  5
915
330
5C
100
AcDbDictionary
280
     1
281
     1
  3
ADSK_XREC_LAYER_RECONCILED
360
916
  0
DICTIONARY
  5
917
330
5D
100
AcDbDictionary
280
     1
281
     1
  3
ADSK_XREC_LAYER_RECONCILED
360
918
  0
DICTIONARY
  5
919
330
5E
100
AcDbDictionary
280
     1
281
     1
  3
ADSK_XREC_LAYER_RECONCILED
360
91A
  0
DICTIONARY
  5
91B
330
5F
100
AcDbDictionary
280
     1
281
     1
  3
ADSK_XREC_LAYER_RECONCILED
360
91C
  0
DICTIONARY
  5
91D
330
60
100
AcDbDictionary
280
     1
281
     1
  3
ADSK_XREC_LAYER_RECONCILED
360
91E
  0
DICTIONARY
  5
91F
330
61
100
AcDbDictionary
280
     1
281
     1
  3
ADSK_XREC_LAYER_RECONCILED
360
920
  0
DICTIONARY
  5
921
330
62
100
AcDbDictionary
280
     1
281
     1
  3
ADSK_XREC_LAYER_RECONCILED
360
922
  0
DICTIONARY
  5
9AB
330
A2
100
AcDbDictionary
280
     1
281
     1
  3
ACAD_XREC_ROUNDTRIP
360
9AC
  0
DICTIONARY
  5
9AD
330
AE
100
AcDbDictionary
280
     1
281
     1
  3
ACAD_XREC_ROUNDTRIP
360
9AE
  0
DICTIONARY
  5
FA
102
{ACAD_REACTORS
330
C
102
}
330
C
100
AcDbDictionary
281
     1
  0
DICTIONARY
  5
D
102
{ACAD_REACTORS
330
C
102
}
330
C
100
AcDbDictionary
281
     1
  0
DICTIONARY
  5
122
102
{ACAD_REACTORS
330
C
102
}
330
C
100
AcDbDictionary
281
     1
  3
Layout1
350
125
  3
Model
350
124
  0
DICTIONARY
  5
D0
102
{ACAD_REACTORS
330
C
102
}
330
C
100
AcDbDictionary
281
     1
  3
ByBlock
350
D9
  3
ByLayer
350
D1
  3
Global
350
E1
  0
DICTIONARY
  5
11F
102
{ACAD_REACTORS
330
C
102
}
330
C
100
AcDbDictionary
281
     1
  3
Standard
350
120
  0
DICTIONARY
  5
1A
102
{ACAD_REACTORS
330
C
102
}
330
C
100
AcDbDictionary
281
     1
  3
STANDARD
350
1B
  0
DICTIONARY
  5
123
102
{ACAD_REACTORS
330
C
102
}
330
C
100
AcDbDictionary
281
     1
  0
ACDBDICTIONARYWDFLT
  5
CE
102
{ACAD_REACTORS
330
C
102
}
330
C
100
AcDbDictionary
281
     1
  3
Normal
350
CF
100
AcDbDictionaryWithDefault
340
CF
  0
DICTIONARY
  5
FD
102
{ACAD_REACTORS
330
C
102
}
330
C
100
AcDbDictionary
281
     1
  3
A0
350
FE
  3
A1
350
FF
  3
A2
350
100
  3
A3
350
101
  3
A4
350
102
  3
A5
350
103
  3
A6
350
104
  3
A7
350
105
  3
A8
350
106
  3
A9
350
107
  3
B0
350
108
  3
B1
350
109
  3
B2
350
10A
  3
B3
350
10B
  3
B4
350
10C
  3
B5
350
10D
  3
B6
350
10E
  3
B7
350
10F
  3
B8
350
110
  3
B9
350
111
  3
C0
350
112
  3
C1
350
113
  3
C2
350
114
  3
C3
350
115
  3
C4
350
116
  3
C5
350
117
  3
C6
350
118
  3
C7
350
119
  3
C8
350
11A
  3
C9
350
11B
  3
D0
350
11C
  3
D1
350
11D
  3
D2
350
11E
  0
DICTIONARY
  5
FB
102
{ACAD_REACTORS
330
C
102
}
330
C
100
AcDbDictionary
281
     1
  3
Standard
350
FC
  0
DICTIONARY
  5
E9
102
{ACAD_REACTORS
330
C
102
}
330
C
100
AcDbDictionary
281
     1
  3
2dWireframe
350
EF
  3
3D Hidden
350
F1
  3
3dWireframe
350
F0
  3
Basic
350
EE
  3
Brighten
350
F5
  3
ColorChange
350
F9
  3
Conceptual
350
F2
  3
Dim
350
F4
  3
Facepattern
350
F8
  3
Flat
350
EA
  3
FlatWithEdges
350
EB
  3
Gouraud
350
EC
  3
GouraudWithEdges
350
ED
  3
Linepattern
350
F7
  3
Realistic
350
F3
  3
Thicken
350
F6
  0
XRECORD
  5
967
102
{ACAD_REACTORS
330
C
102
}
330
C
100
AcDbXrecord
280
     1
 90
        1
330
FC
  0
DICTIONARY
  5
69
102
{ACAD_REACTORS
330
C
102
}
330
C
100
AcDbDictionary
281
     1
  3
CANNOSCALE
350
96B
  3
CMLEADERSTYLE
350
969
  3
CTABLESTYLE
350
968
  3
DIMADEC
350
6A
  3
DIMASSOC
350
9A5
  3
INDEXCTL
350
9A4
  3
LAYEREVAL
350
96D
  3
LAYERNOTIFY
350
96E
  3
LIGHTINGUNITS
350
96C
  3
LOFTANG1
350
9A6
  3
LOFTANG2
350
9A7
  3
LONGITUDE
350
9A8
  3
MSLTSCALE
350
96A
  3
SORTENTS
350
9A3
  0
XRECORD
  5
9AA
102
{ACAD_REACTORS
330
C
102
}
330
C
100
AcDbXrecord
280
     1
  1
DWGPROPS COOKIE
  2

  3

  4

  6

  7

  8
kwilkens
  9

300
=
301
=
302
=
303
=
304
=
305
=
306
=
307
=
308
=
309
=
 40
0.0175089236111111
 41
2450247.666150231
 42
2455117.497069063
  1

 90
        0
  0
DICTIONARY
  5
946
102
{ACAD_REACTORS
330
945
102
}
330
945
100
AcDbDictionary
281
     1
  0
XRECORD
  5
900
102
{ACAD_REACTORS
330
8FF
102
}
330
8FF
100
AcDbXrecord
280
     1
290
     1
  0
XRECORD
  5
902
102
{ACAD_REACTORS
330
901
102
}
330
901
100
AcDbXrecord
280
     1
290
     1
  0
XRECORD
  5
904
102
{ACAD_REACTORS
330
903
102
}
330
903
100
AcDbXrecord
280
     1
290
     1
  0
XRECORD
  5
906
102
{ACAD_REACTORS
330
905
102
}
330
905
100
AcDbXrecord
280
     1
290
     1
  0
XRECORD
  5
908
102
{ACAD_REACTORS
330
907
102
}
330
907
100
AcDbXrecord
280
     1
290
     1
  0
XRECORD
  5
90A
102
{ACAD_REACTORS
330
909
102
}
330
909
100
AcDbXrecord
280
     1
290
     1
  0
XRECORD
  5
90C
102
{ACAD_REACTORS
330
90B
102
}
330
90B
100
AcDbXrecord
280
     1
290
     1
  0
XRECORD
  5
90E
102
{ACAD_REACTORS
330
90D
102
}
330
90D
100
AcDbXrecord
280
     1
290
     1
  0
XRECORD
  5
910
102
{ACAD_REACTORS
330
90F
102
}
330
90F
100
AcDbXrecord
280
     1
290
     1
  0
XRECORD
  5
912
102
{ACAD_REACTORS
330
911
102
}
330
911
100
AcDbXrecord
280
     1
290
     1
  0
XRECORD
  5
914
102
{ACAD_REACTORS
330
913
102
}
330
913
100
AcDbXrecord
280
     1
290
     1
  0
XRECORD
  5
916
102
{ACAD_REACTORS
330
915
102
}
330
915
100
AcDbXrecord
280
     1
290
     1
  0
XRECORD
  5
918
102
{ACAD_REACTORS
330
917
102
}
330
917
100
AcDbXrecord
280
     1
290
     1
  0
XRECORD
  5
91A
102
{ACAD_REACTORS
330
919
102
}
330
919
100
AcDbXrecord
280
     1
290
     1
  0
XRECORD
  5
91C
102
{ACAD_REACTORS
330
91B
102
}
330
91B
100
AcDbXrecord
280
     1
290
     1
  0
XRECORD
  5
91E
102
{ACAD_REACTORS
330
91D
102
}
330
91D
100
AcDbXrecord
280
     1
290
     1
  0
XRECORD
  5
920
102
{ACAD_REACTORS
330
91F
102
}
330
91F
100
AcDbXrecord
280
     1
290
     1
  0
XRECORD
  5
922
102
{ACAD_REACTORS
330
921
102
}
330
921
100
AcDbXrecord
280
     1
290
     1
  0
XRECORD
  5
9AC
102
{ACAD_REACTORS
330
9AB
102
}
330
9AB
100
AcDbXrecord
280
     1
102
SHADEPLOT
 70
     0
  0
XRECORD
  5
9AE
102
{ACAD_REACTORS
330
9AD
102
}
330
9AD
100
AcDbXrecord
280
     1
102
SHADEPLOT
 70
     0
  0
LAYOUT
  5
125
102
{ACAD_XDICTIONARY
360
94A
102
}
102
{ACAD_REACTORS
330
122
102
}
330
122
100
AcDbPlotSettings
  1

  2
\\36-util-001\36-PR-027
  4
Letter
  6

 40
7.143749713897705
 41
7.143756389617919
 42
7.14373779296875
 43
7.14373779296875
 44
215.8999938964844
 45
279.3999938964844
 46
0.0
 47
0.0
 48
0.0
 49
0.0
140
0.0
141
0.0
142
1.0
143
1.533121200459283
 70
   688
 72
     0
 73
     1
 74
     1
  7

 75
     0
147
0.6522641521755918
148
0.0248035509609224
149
0.0155022192079088
100
AcDbLayout
  1
Layout1
 70
     1
 71
     1
 10
-0.4321661185780917
 20
-0.4318006439511584
 11
16.4321667180713
 21
12.59972919155003
 12
0.0
 22
0.0
 32
0.0
 14
0.0
 24
0.0
 34
0.0
 15
15.999999328
 25
9.999999488
 35
0.0
146
0.0
 13
0.0
 23
0.0
 33
0.0
 16
1.0
 26
0.0
 36
0.0
 17
0.0
 27
1.0
 37
0.0
 76
     0
330
14
331
A2
1001
ACAD_PSEXT
1000
\\36-util-001\36-PR-027
1000
Xerox WorkCentre 7655 rev2
1000
US/IL/UP
1000
ELP Engineering - S. Niemczak
1070
     0
  0
LAYOUT
  5
124
102
{ACAD_XDICTIONARY
360
9B3
102
}
102
{ACAD_REACTORS
330
122
102
}
330
122
100
AcDbPlotSettings
  1

  2
\\36-util-001\36-PR-027
  4

  6

 40
0.0
 41
0.0
 42
0.0
 43
0.0
 44
0.0
 45
0.0
 46
0.0
 47
0.0
 48
0.0
 49
0.0
140
0.0
141
0.0
142
1.0
143
1.0
 70
  1712
 72
     0
 73
     0
 74
     0
  7

 75
     0
147
1.0
148
0.0
149
0.0
100
AcDbLayout
  1
Model
 70
     1
 71
     0
 10
0.0
 20
0.0
 11
12.0
 21
9.0
 12
0.0
 22
0.0
 32
0.0
 14
0.0
 24
0.0
 34
0.0
 15
0.0
 25
0.0
 35
0.0
146
0.0
 13
0.0
 23
0.0
 33
0.0
 16
1.0
 26
0.0
 36
0.0
 17
0.0
 27
1.0
 37
0.0
 76
     0
330
17
  0
MATERIAL
  5
D9
102
{ACAD_XDICTIONARY
360
DA
102
}
102
{ACAD_REACTORS
330
D0
102
}
330
D0
100
AcDbMaterial
  1
ByBlock
 72
     0
 43
0.0208333333333333
 43
0.0
 43
0.0
 43
0.0
 43
0.0
 43
0.0208333333333333
 43
0.0
 43
0.0
 43
0.0
 43
0.0
 43
1.0
 43
0.0
 43
0.0
 43
0.0
 43
0.0
 43
1.0
 77
     0
 47
0.0208333333333333
 47
0.0
 47
0.0
 47
0.0
 47
0.0
 47
0.0208333333333333
 47
0.0
 47
0.0
 47
0.0
 47
0.0
 47
1.0
 47
0.0
 47
0.0
 47
0.0
 47
0.0
 47
1.0
171
     0
 49
0.0208333333333333
 49
0.0
 49
0.0
 49
0.0
 49
0.0
 49
0.0208333333333333
 49
0.0
 49
0.0
 49
0.0
 49
0.0
 49
1.0
 49
0.0
 49
0.0
 49
0.0
 49
0.0
 49
1.0
175
     0
142
0.0208333333333333
142
0.0
142
0.0
142
0.0
142
0.0
142
0.0208333333333333
142
0.0
142
0.0
142
0.0
142
0.0
142
1.0
142
0.0
142
0.0
142
0.0
142
0.0
142
1.0
179
     0
144
0.0208333333333333
144
0.0
144
0.0
144
0.0
144
0.0
144
0.0208333333333333
144
0.0
144
0.0
144
0.0
144
0.0
144
1.0
144
0.0
144
0.0
144
0.0
144
0.0
144
1.0
147
0.0208333333333333
147
0.0
147
0.0
147
0.0
147
0.0
147
0.0208333333333333
147
0.0
147
0.0
147
0.0
147
0.0
147
1.0
147
0.0
147
0.0
147
0.0
147
0.0
147
1.0
  0
MATERIAL
  5
D1
102
{ACAD_XDICTIONARY
360
D2
102
}
102
{ACAD_REACTORS
330
D0
102
}
330
D0
100
AcDbMaterial
  1
ByLayer
 72
     0
 43
0.0208333333333333
 43
0.0
 43
0.0
 43
0.0
 43
0.0
 43
0.0208333333333333
 43
0.0
 43
0.0
 43
0.0
 43
0.0
 43
1.0
 43
0.0
 43
0.0
 43
0.0
 43
0.0
 43
1.0
 77
     0
 47
0.0208333333333333
 47
0.0
 47
0.0
 47
0.0
 47
0.0
 47
0.0208333333333333
 47
0.0
 47
0.0
 47
0.0
 47
0.0
 47
1.0
 47
0.0
 47
0.0
 47
0.0
 47
0.0
 47
1.0
171
     0
 49
0.0208333333333333
 49
0.0
 49
0.0
 49
0.0
 49
0.0
 49
0.0208333333333333
 49
0.0
 49
0.0
 49
0.0
 49
0.0
 49
1.0
 49
0.0
 49
0.0
 49
0.0
 49
0.0
 49
1.0
175
     0
142
0.0208333333333333
142
0.0
142
0.0
142
0.0
142
0.0
142
0.0208333333333333
142
0.0
142
0.0
142
0.0
142
0.0
142
1.0
142
0.0
142
0.0
142
0.0
142
0.0
142
1.0
179
     0
144
0.0208333333333333
144
0.0
144
0.0
144
0.0
144
0.0
144
0.0208333333333333
144
0.0
144
0.0
144
0.0
144
0.0
144
1.0
144
0.0
144
0.0
144
0.0
144
0.0
144
1.0
147
0.0208333333333333
147
0.0
147
0.0
147
0.0
147
0.0
147
0.0208333333333333
147
0.0
147
0.0
147
0.0
147
0.0
147
1.0
147
0.0
147
0.0
147
0.0
147
0.0
147
1.0
  0
MATERIAL
  5
E1
102
{ACAD_XDICTIONARY
360
E2
102
}
102
{ACAD_REACTORS
330
D0
102
}
330
D0
100
AcDbMaterial
  1
Global
 72
     0
 43
0.0208333333333333
 43
0.0
 43
0.0
 43
0.0
 43
0.0
 43
0.0208333333333333
 43
0.0
 43
0.0
 43
0.0
 43
0.0
 43
1.0
 43
0.0
 43
0.0
 43
0.0
 43
0.0
 43
1.0
 77
     0
 47
0.0208333333333333
 47
0.0
 47
0.0
 47
0.0
 47
0.0
 47
0.0208333333333333
 47
0.0
 47
0.0
 47
0.0
 47
0.0
 47
1.0
 47
0.0
 47
0.0
 47
0.0
 47
0.0
 47
1.0
171
     0
 49
0.0208333333333333
 49
0.0
 49
0.0
 49
0.0
 49
0.0
 49
0.0208333333333333
 49
0.0
 49
0.0
 49
0.0
 49
0.0
 49
1.0
 49
0.0
 49
0.0
 49
0.0
 49
0.0
 49
1.0
175
     0
142
0.0208333333333333
142
0.0
142
0.0
142
0.0
142
0.0
142
0.0208333333333333
142
0.0
142
0.0
142
0.0
142
0.0
142
1.0
142
0.0
142
0.0
142
0.0
142
0.0
142
1.0
179
     0
144
0.0208333333333333
144
0.0
144
0.0
144
0.0
144
0.0
144
0.0208333333333333
144
0.0
144
0.0
144
0.0
144
0.0
144
1.0
144
0.0
144
0.0
144
0.0
144
0.0
144
1.0
147
0.0208333333333333
147
0.0
147
0.0
147
0.0
147
0.0
147
0.0208333333333333
147
0.0
147
0.0
147
0.0
147
0.0
147
1.0
147
0.0
147
0.0
147
0.0
147
0.0
147
1.0
  0
MLEADERSTYLE
  5
120
102
{ACAD_REACTORS
330
11F
102
}
330
11F
100
AcDbMLeaderStyle
170
     2
171
     1
172
     0
 90
        2
 40
0.0
 41
0.0
173
     1
 91
-1056964608
340
11
 92
       -2
290
     1
 42
0.09
291
     1
 43
0.36
  3
Standard
 44
0.18
300

342
F
174
     1
178
     6
175
     1
176
     0
 93
-1056964608
 45
0.18
292
     0
297
     0
 46
0.18
 94
-1056964608
 47
1.0
 49
1.0
140
1.0
293
     1
141
0.0
294
     1
177
     0
142
1.0
295
     0
296
     0
143
0.125
1001
ACAD_MLEADERVER
1070
     2
  0
MLINESTYLE
  5
1B
102
{ACAD_REACTORS
330
1A
102
}
330
1A
100
AcDbMlineStyle
  2
STANDARD
 70
     0
  3

 62
   256
 51
90.0
 52
90.0
 71
     2
 49
0.5
 62
   256
  6
BYLAYER
 49
-0.5
 62
   256
  6
BYLAYER
  0
ACDBPLACEHOLDER
  5
CF
102
{ACAD_REACTORS
330
CE
102
}
330
CE
  0
SCALE
  5
FE
102
{ACAD_REACTORS
330
FD
102
}
330
FD
100
AcDbScale
 70
     0
300
1:1
140
1.0
141
1.0
290
     1
  0
SCALE
  5
FF
102
{ACAD_REACTORS
330
FD
102
}
330
FD
100
AcDbScale
 70
     0
300
1:2
140
1.0
141
2.0
290
     0
  0
SCALE
  5
100
102
{ACAD_REACTORS
330
FD
102
}
330
FD
100
AcDbScale
 70
     0
300
1:4
140
1.0
141
4.0
290
     0
  0
SCALE
  5
101
102
{ACAD_REACTORS
330
FD
102
}
330
FD
100
AcDbScale
 70
     0
300
1:5
140
1.0
141
5.0
290
     0
  0
SCALE
  5
102
102
{ACAD_REACTORS
330
FD
102
}
330
FD
100
AcDbScale
 70
     0
300
1:8
140
1.0
141
8.0
290
     0
  0
SCALE
  5
103
102
{ACAD_REACTORS
330
FD
102
}
330
FD
100
AcDbScale
 70
     0
300
1:10
140
1.0
141
10.0
290
     0
  0
SCALE
  5
104
102
{ACAD_REACTORS
330
FD
102
}
330
FD
100
AcDbScale
 70
     0
300
1:16
140
1.0
141
16.0
290
     0
  0
SCALE
  5
105
102
{ACAD_REACTORS
330
FD
102
}
330
FD
100
AcDbScale
 70
     0
300
1:20
140
1.0
141
20.0
290
     0
  0
SCALE
  5
106
102
{ACAD_REACTORS
330
FD
102
}
330
FD
100
AcDbScale
 70
     0
300
1:30
140
1.0
141
30.0
290
     0
  0
SCALE
  5
107
102
{ACAD_REACTORS
330
FD
102
}
330
FD
100
AcDbScale
 70
     0
300
1:40
140
1.0
141
40.0
290
     0
  0
SCALE
  5
108
102
{ACAD_REACTORS
330
FD
102
}
330
FD
100
AcDbScale
 70
     0
300
1:50
140
1.0
141
50.0
290
     0
  0
SCALE
  5
109
102
{ACAD_REACTORS
330
FD
102
}
330
FD
100
AcDbScale
 70
     0
300
1:100
140
1.0
141
100.0
290
     0
  0
SCALE
  5
10A
102
{ACAD_REACTORS
330
FD
102
}
330
FD
100
AcDbScale
 70
     0
300
2:1
140
2.0
141
1.0
290
     0
  0
SCALE
  5
10B
102
{ACAD_REACTORS
330
FD
102
}
330
FD
100
AcDbScale
 70
     0
300
4:1
140
4.0
141
1.0
290
     0
  0
SCALE
  5
10C
102
{ACAD_REACTORS
330
FD
102
}
330
FD
100
AcDbScale
 70
     0
300
8:1
140
8.0
141
1.0
290
     0
  0
SCALE
  5
10D
102
{ACAD_REACTORS
330
FD
102
}
330
FD
100
AcDbScale
 70
     0
300
10:1
140
10.0
141
1.0
290
     0
  0
SCALE
  5
10E
102
{ACAD_REACTORS
330
FD
102
}
330
FD
100
AcDbScale
 70
     0
300
100:1
140
100.0
141
1.0
290
     0
  0
SCALE
  5
10F
102
{ACAD_REACTORS
330
FD
102
}
330
FD
100
AcDbScale
 70
     0
300
1/128" = 1'-0"
140
0.0078125
141
12.0
290
     0
  0
SCALE
  5
110
102
{ACAD_REACTORS
330
FD
102
}
330
FD
100
AcDbScale
 70
     0
300
1/64" = 1'-0"
140
0.015625
141
12.0
290
     0
  0
SCALE
  5
111
102
{ACAD_REACTORS
330
FD
102
}
330
FD
100
AcDbScale
 70
     0
300
1/32" = 1'-0"
140
0.03125
141
12.0
290
     0
  0
SCALE
  5
112
102
{ACAD_REACTORS
330
FD
102
}
330
FD
100
AcDbScale
 70
     0
300
1/16" = 1'-0"
140
0.0625
141
12.0
290
     0
  0
SCALE
  5
113
102
{ACAD_REACTORS
330
FD
102
}
330
FD
100
AcDbScale
 70
     0
300
3/32" = 1'-0"
140
0.09375
141
12.0
290
     0
  0
SCALE
  5
114
102
{ACAD_REACTORS
330
FD
102
}
330
FD
100
AcDbScale
 70
     0
300
1/8" = 1'-0"
140
0.125
141
12.0
290
     0
  0
SCALE
  5
115
102
{ACAD_REACTORS
330
FD
102
}
330
FD
100
AcDbScale
 70
     0
300
3/16" = 1'-0"
140
0.1875
141
12.0
290
     0
  0
SCALE
  5
116
102
{ACAD_REACTORS
330
FD
102
}
330
FD
100
AcDbScale
 70
     0
300
1/4" = 1'-0"
140
0.25
141
12.0
290
     0
  0
SCALE
  5
117
102
{ACAD_REACTORS
330
FD
102
}
330
FD
100
AcDbScale
 70
     0
300
3/8" = 1'-0"
140
0.375
141
12.0
290
     0
  0
SCALE
  5
118
102
{ACAD_REACTORS
330
FD
102
}
330
FD
100
AcDbScale
 70
     0
300
1/2" = 1'-0"
140
0.5
141
12.0
290
     0
  0
SCALE
  5
119
102
{ACAD_REACTORS
330
FD
102
}
330
FD
100
AcDbScale
 70
     0
300
3/4" = 1'-0"
140
0.75
141
12.0
290
     0
  0
SCALE
  5
11A
102
{ACAD_REACTORS
330
FD
102
}
330
FD
100
AcDbScale
 70
     0
300
1" = 1'-0"
140
1.0
141
12.0
290
     0
  0
SCALE
  5
11B
102
{ACAD_REACTORS
330
FD
102
}
330
FD
100
AcDbScale
 70
     0
300
1-1/2" = 1'-0"
140
1.5
141
12.0
290
     0
  0
SCALE
  5
11C
102
{ACAD_REACTORS
330
FD
102
}
330
FD
100
AcDbScale
 70
     0
300
3" = 1'-0"
140
3.0
141
12.0
290
     0
  0
SCALE
  5
11D
102
{ACAD_REACTORS
330
FD
102
}
330
FD
100
AcDbScale
 70
     0
300
6" = 1'-0"
140
6.0
141
12.0
290
     0
  0
SCALE
  5
11E
102
{ACAD_REACTORS
330
FD
102
}
330
FD
100
AcDbScale
 70
     0
300
1'-0" = 1'-0"
140
12.0
141
12.0
290
     0
  0
TABLESTYLE
  5
FC
102
{ACAD_XDICTIONARY
360
965
102
}
102
{ACAD_REACTORS
330
FB
102
}
330
FB
100
AcDbTableStyle
  3
Standard
 70
     0
 71
     0
 40
0.06
 41
0.06
280
     0
281
     0
  7
STANDARD
140
0.18
170
     2
 62
     0
 63
     7
283
     0
274
    -2
284
     1
 64
     0
275
    -2
285
     1
 65
     0
276
    -2
286
     1
 66
     0
277
    -2
287
     1
 67
     0
278
    -2
288
     1
 68
     0
279
    -2
289
     1
 69
     0
  7
STANDARD
140
0.25
170
     5
 62
     0
 63
     7
283
     0
274
    -2
284
     1
 64
     0
275
    -2
285
     1
 65
     0
276
    -2
286
     1
 66
     0
277
    -2
287
     1
 67
     0
278
    -2
288
     1
 68
     0
279
    -2
289
     1
 69
     0
  7
STANDARD
140
0.18
170
     5
 62
     0
 63
     7
283
     0
274
    -2
284
     1
 64
     0
275
    -2
285
     1
 65
     0
276
    -2
286
     1
 66
     0
277
    -2
287
     1
 67
     0
278
    -2
288
     1
 68
     0
279
    -2
289
     1
 69
     0
  0
VISUALSTYLE
  5
EF
102
{ACAD_REACTORS
330
E9
102
}
330
E9
100
AcDbVisualStyle
  2
2dWireframe
 70
     4
 71
     0
 72
     2
 73
     0
 90
        0
 40
-0.6
 41
-30.0
 62
     5
 63
     7
 74
     1
 91
        4
 64
     7
 65
   257
 75
     1
175
     1
 42
1.0
 92
        0
 66
   257
 43
1.0
 76
     1
 77
     6
 78
     2
 67
     7
 79
     5
170
     0
171
     0
290
     0
174
     0
 93
        1
 44
0.0
173
     0
291
     0
 45
0.0
1001
ACAD
1000
AcDbSavedByObjectVersion
1070
     0
  0
VISUALSTYLE
  5
F1
102
{ACAD_REACTORS
330
E9
102
}
330
E9
100
AcDbVisualStyle
  2
3D Hidden
 70
     6
 71
     1
 72
     2
 73
     2
 90
        0
 40
-0.6
 41
-30.0
 62
     5
 63
     7
 74
     2
 91
        2
 64
     7
 65
   257
 75
     2
175
     1
 42
40.0
 92
        0
 66
   257
 43
1.0
 76
     1
 77
     6
 78
     2
 67
     7
 79
     3
170
     0
171
     0
290
     0
174
     0
 93
        1
 44
0.0
173
     0
291
     0
 45
0.0
1001
ACAD
1000
AcDbSavedByObjectVersion
1070
     0
  0
VISUALSTYLE
  5
F0
102
{ACAD_REACTORS
330
E9
102
}
330
E9
100
AcDbVisualStyle
  2
3dWireframe
 70
     5
 71
     0
 72
     2
 73
     0
 90
        0
 40
-0.6
 41
-30.0
 62
     5
 63
     7
 74
     1
 91
        4
 64
     7
 65
   257
 75
     1
175
     1
 42
1.0
 92
        0
 66
   257
 43
1.0
 76
     1
 77
     6
 78
     2
 67
     7
 79
     5
170
     0
171
     0
290
     0
174
     0
 93
        1
 44
0.0
173
     0
291
     0
 45
0.0
1001
ACAD
1000
AcDbSavedByObjectVersion
1070
     0
  0
VISUALSTYLE
  5
EE
102
{ACAD_REACTORS
330
E9
102
}
330
E9
100
AcDbVisualStyle
  2
Basic
 70
     7
 71
     1
 72
     0
 73
     1
 90
        0
 40
-0.6
 41
-30.0
 62
     5
 63
     7
 74
     0
 91
        4
 64
     7
 65
   257
 75
     1
175
     1
 42
1.0
 92
        8
 66
     7
 43
1.0
 76
     1
 77
     6
 78
     2
 67
     7
 79
     5
170
     0
171
     0
290
     0
174
     0
 93
        1
 44
0.0
173
     0
291
     1
 45
0.0
1001
ACAD
1000
AcDbSavedByObjectVersion
1070
     0
  0
VISUALSTYLE
  5
F5
102
{ACAD_REACTORS
330
E9
102
}
330
E9
100
AcDbVisualStyle
  2
Brighten
 70
    12
 71
     2
 72
     2
 73
     0
 90
        0
 40
-0.6
 41
-30.0
 62
     5
 63
     7
 74
     1
 91
        4
 64
     7
 65
   257
 75
     1
175
     1
 42
1.0
 92
        8
 66
     7
 43
1.0
 76
     1
 77
     6
 78
     2
 67
     7
 79
     5
170
     0
171
     0
290
     0
174
     0
 93
        1
 44
50.0
173
     0
291
     1
 45
0.0
1001
ACAD
1000
AcDbSavedByObjectVersion
1070
     0
  0
VISUALSTYLE
  5
F9
102
{ACAD_REACTORS
330
E9
102
}
330
E9
100
AcDbVisualStyle
  2
ColorChange
 70
    16
 71
     2
 72
     2
 73
     3
 90
        0
 40
-0.6
 41
-30.0
 62
     5
 63
     8
 74
     1
 91
        4
 64
     7
 65
   257
 75
     1
175
     1
 42
1.0
 92
        8
 66
     8
 43
1.0
 76
     1
 77
     6
 78
     2
 67
     7
 79
     5
170
     0
171
     0
290
     0
174
     0
 93
        1
 44
0.0
173
     0
291
     1
 45
0.0
1001
ACAD
1000
AcDbSavedByObjectVersion
1070
     0
  0
VISUALSTYLE
  5
F2
102
{ACAD_REACTORS
330
E9
102
}
330
E9
100
AcDbVisualStyle
  2
Conceptual
 70
     9
 71
     3
 72
     2
 73
     0
 90
        0
 40
-0.6
 41
-30.0
 62
     5
 63
     7
 74
     2
 91
        2
 64
     7
 65
   257
 75
     1
175
     1
 42
40.0
 92
        8
 66
     7
 43
1.0
 76
     1
 77
     6
 78
     2
 67
     7
 79
     3
170
     0
171
     0
290
     0
174
     0
 93
        1
 44
0.0
173
     0
291
     0
 45
0.0
1001
ACAD
1000
AcDbSavedByObjectVersion
1070
     0
  0
VISUALSTYLE
  5
F4
102
{ACAD_REACTORS
330
E9
102
}
330
E9
100
AcDbVisualStyle
  2
Dim
 70
    11
 71
     2
 72
     2
 73
     0
 90
        0
 40
-0.6
 41
-30.0
 62
     5
 63
     7
 74
     1
 91
        4
 64
     7
 65
   257
 75
     1
175
     1
 42
1.0
 92
        8
 66
     7
 43
1.0
 76
     1
 77
     6
 78
     2
 67
     7
 79
     5
170
     0
171
     0
290
     0
174
     0
 93
        1
 44
-50.0
173
     0
291
     1
 45
0.0
1001
ACAD
1000
AcDbSavedByObjectVersion
1070
     0
  0
VISUALSTYLE
  5
F8
102
{ACAD_REACTORS
330
E9
102
}
330
E9
100
AcDbVisualStyle
  2
Facepattern
 70
    15
 71
     2
 72
     2
 73
     0
 90
        0
 40
-0.6
 41
-30.0
 62
     5
 63
     7
 74
     1
 91
        4
 64
     7
 65
   257
 75
     1
175
     1
 42
1.0
 92
        8
 66
     7
 43
1.0
 76
     1
 77
     6
 78
     2
 67
     7
 79
     5
170
     0
171
     0
290
     0
174
     0
 93
        1
 44
0.0
173
     0
291
     1
 45
0.0
1001
ACAD
1000
AcDbSavedByObjectVersion
1070
     0
  0
VISUALSTYLE
  5
EA
102
{ACAD_REACTORS
330
E9
102
}
330
E9
100
AcDbVisualStyle
  2
Flat
 70
     0
 71
     2
 72
     1
 73
     1
 90
        2
 40
-0.6
 41
30.0
 62
     5
 63
     7
 74
     0
 91
        4
 64
     7
 65
   257
 75
     1
175
     1
 42
1.0
 92
        8
 66
     7
 43
1.0
 76
     1
 77
     6
 78
     2
 67
     7
 79
     5
170
     0
171
     0
290
     0
174
     0
 93
       13
 44
0.0
173
     0
291
     1
 45
0.0
1001
ACAD
1000
AcDbSavedByObjectVersion
1070
     0
  0
VISUALSTYLE
  5
EB
102
{ACAD_REACTORS
330
E9
102
}
330
E9
100
AcDbVisualStyle
  2
FlatWithEdges
 70
     1
 71
     2
 72
     1
 73
     1
 90
        2
 40
-0.6
 41
30.0
 62
     5
 63
     7
 74
     1
 91
        4
 64
     7
 65
   257
 75
     1
175
     1
 42
1.0
 92
        0
 66
   257
 43
1.0
 76
     1
 77
     6
 78
     2
 67
     7
 79
     5
170
     0
171
     0
290
     0
174
     0
 93
       13
 44
0.0
173
     0
291
     1
 45
0.0
1001
ACAD
1000
AcDbSavedByObjectVersion
1070
     0
  0
VISUALSTYLE
  5
EC
102
{ACAD_REACTORS
330
E9
102
}
330
E9
100
AcDbVisualStyle
  2
Gouraud
 70
     2
 71
     2
 72
     2
 73
     1
 90
        2
 40
-0.6
 41
30.0
 62
     5
 63
     7
 74
     0
 91
        4
 64
     7
 65
   257
 75
     1
175
     1
 42
1.0
 92
        0
 66
     7
 43
1.0
 76
     1
 77
     6
 78
     2
 67
     7
 79
     5
170
     0
171
     0
290
     0
174
     0
 93
       13
 44
0.0
173
     0
291
     1
 45
0.0
1001
ACAD
1000
AcDbSavedByObjectVersion
1070
     0
  0
VISUALSTYLE
  5
ED
102
{ACAD_REACTORS
330
E9
102
}
330
E9
100
AcDbVisualStyle
  2
GouraudWithEdges
 70
     3
 71
     2
 72
     2
 73
     1
 90
        2
 40
-0.6
 41
30.0
 62
     5
 63
     7
 74
     1
 91
        4
 64
     7
 65
   257
 75
     1
175
     1
 42
1.0
 92
        0
 66
   257
 43
1.0
 76
     1
 77
     6
 78
     2
 67
     7
 79
     5
170
     0
171
     0
290
     0
174
     0
 93
       13
 44
0.0
173
     0
291
     1
 45
0.0
1001
ACAD
1000
AcDbSavedByObjectVersion
1070
     0
  0
VISUALSTYLE
  5
F7
102
{ACAD_REACTORS
330
E9
102
}
330
E9
100
AcDbVisualStyle
  2
Linepattern
 70
    14
 71
     2
 72
     2
 73
     0
 90
        0
 40
-0.6
 41
-30.0
 62
     5
 63
     7
 74
     1
 91
        4
 64
     7
 65
   257
 75
     7
175
     7
 42
1.0
 92
        8
 66
     7
 43
1.0
 76
     1
 77
     6
 78
     2
 67
     7
 79
     5
170
     0
171
     0
290
     0
174
     0
 93
        1
 44
0.0
173
     0
291
     1
 45
0.0
1001
ACAD
1000
AcDbSavedByObjectVersion
1070
     0
  0
VISUALSTYLE
  5
F3
102
{ACAD_REACTORS
330
E9
102
}
330
E9
100
AcDbVisualStyle
  2
Realistic
 70
     8
 71
     2
 72
     2
 73
     0
 90
        0
 40
-0.6
 41
-30.0
 62
     5
 63
     7
 74
     1
 91
        0
 64
     7
 65
   257
 75
     1
175
     1
 42
1.0
 92
        8
 66
     8
 43
1.0
 76
     1
 77
     6
 78
     2
 67
     7
 79
     5
170
     0
171
     0
290
     0
174
     0
 93
       13
 44
0.0
173
     0
291
     0
 45
0.0
1001
ACAD
1000
AcDbSavedByObjectVersion
1070
     0
  0
VISUALSTYLE
  5
F6
102
{ACAD_REACTORS
330
E9
102
}
330
E9
100
AcDbVisualStyle
  2
Thicken
 70
    13
 71
     2
 72
     2
 73
     0
 90
        0
 40
-0.6
 41
-30.0
 62
     5
 63
     7
 74
     1
 91
        4
 64
     7
 65
   257
 75
     1
175
     1
 42
1.0
 92
       12
 66
     7
 43
1.0
 76
     1
 77
     6
 78
     2
 67
     7
 79
     5
170
     0
171
     0
290
     0
174
     0
 93
        1
 44
0.0
173
     0
291
     1
 45
0.0
1001
ACAD
1000
AcDbSavedByObjectVersion
1070
     0
  0
DICTIONARYVAR
  5
96B
102
{ACAD_REACTORS
330
69
102
}
330
69
100
DictionaryVariables
280
     0
  1
1:1
  0
DICTIONARYVAR
  5
969
102
{ACAD_REACTORS
330
69
102
}
330
69
100
DictionaryVariables
280
     0
  1
STANDARD
  0
DICTIONARYVAR
  5
968
102
{ACAD_REACTORS
330
69
102
}
330
69
100
DictionaryVariables
280
     0
  1
STANDARD
  0
DICTIONARYVAR
  5
6A
102
{ACAD_REACTORS
330
69
102
}
330
69
100
DictionaryVariables
280
     0
  1
1
  0
DICTIONARYVAR
  5
9A5
102
{ACAD_REACTORS
330
69
102
}
330
69
100
DictionaryVariables
280
     0
  1
1
  0
DICTIONARYVAR
  5
9A4
102
{ACAD_REACTORS
330
69
102
}
330
69
100
DictionaryVariables
280
     0
  1
0
  0
DICTIONARYVAR
  5
96D
102
{ACAD_REACTORS
330
69
102
}
330
69
100
DictionaryVariables
280
     0
  1
1
  0
DICTIONARYVAR
  5
96E
102
{ACAD_REACTORS
330
69
102
}
330
69
100
DictionaryVariables
280
     0
  1
15
  0
DICTIONARYVAR
  5
96C
102
{ACAD_REACTORS
330
69
102
}
330
69
100
DictionaryVariables
280
     0
  1
0
  0
DICTIONARYVAR
  5
9A6
102
{ACAD_REACTORS
330
69
102
}
330
69
100
DictionaryVariables
280
     0
  1
1.570796
  0
DICTIONARYVAR
  5
9A7
102
{ACAD_REACTORS
330
69
102
}
330
69
100
DictionaryVariables
280
     0
  1
1.570796
  0
DICTIONARYVAR
  5
9A8
102
{ACAD_REACTORS
330
69
102
}
330
69
100
DictionaryVariables
280
     0
  1
-122.394000
  0
DICTIONARYVAR
  5
96A
102
{ACAD_REACTORS
330
69
102
}
330
69
100
DictionaryVariables
280
     0
  1
0
  0
DICTIONARYVAR
  5
9A3
102
{ACAD_REACTORS
330
69
102
}
330
69
100
DictionaryVariables
280
     0
  1
127
  0
DICTIONARY
  5
94A
330
125
100
AcDbDictionary
280
     1
281
     1
  3
ACAD_XREC_ROUNDTRIP
360
9B5
  3
ADSK_XREC_LAYOUTTHUMBNAIL
360
94B
  0
DICTIONARY
  5
9B3
330
124
100
AcDbDictionary
280
     1
281
     1
  3
ACAD_XREC_ROUNDTRIP
360
9B4
  0
DICTIONARY
  5
DA
330
D9
100
AcDbDictionary
280
     1
281
     1
  3
ACAD_XREC_ROUNDTRIP
360
9B0
  3
BUMPTILE
360
DC
  3
DIFFUSETILE
360
DB
  3
OPACITYTILE
360
DF
  3
REFLECTIONTILE
360
DE
  3
REFRACTIONTILE
360
E0
  3
SPECULARTILE
360
DD
  0
DICTIONARY
  5
D2
330
D1
100
AcDbDictionary
280
     1
281
     1
  3
ACAD_XREC_ROUNDTRIP
360
9AF
  3
BUMPTILE
360
D4
  3
DIFFUSETILE
360
D3
  3
OPACITYTILE
360
D7
  3
REFLECTIONTILE
360
D6
  3
REFRACTIONTILE
360
D8
  3
SPECULARTILE
360
D5
  0
DICTIONARY
  5
E2
330
E1
100
AcDbDictionary
280
     1
281
     1
  3
ACAD_XREC_ROUNDTRIP
360
9B1
  3
BUMPTILE
360
E4
  3
DIFFUSETILE
360
E3
  3
OPACITYTILE
360
E7
  3
REFLECTIONTILE
360
E6
  3
REFRACTIONTILE
360
E8
  3
SPECULARTILE
360
E5
  0
DICTIONARY
  5
965
330
FC
100
AcDbDictionary
280
     1
281
     1
  3
ACAD_ROUNDTRIP_2008_TABLESTYLE_CELLSTYLEMAP
360
9A9
  3
ACAD_XREC_ROUNDTRIP
360
9B2
  0
XRECORD
  5
9B5
102
{ACAD_REACTORS
330
94A
102
}
330
94A
100
AcDbXrecord
280
     1
102
SHADEPLOT
 70
     0
102
SHADEPLOTRESLEVEL
 70
     2
102
SHADEPLOTCUSTOMDPI
 70
   300
  0
XRECORD
  5
94B
102
{ACAD_REACTORS
330
94A
102
}
330
94A
100
AcDbXrecord
280
     1
310
2800000000010000C6000000010008000000000000C6000000000000000000000001000000000000FFFFFF0000000000FFFFFF000000000000000000000000000000000000000000000000000000000000000000330000006600000099000000CC000000FF00000000330000333300006633000099330000CC330000FF3300
310
0000660000336600006666000099660000CC660000FF66000000990000339900006699000099990000CC990000FF99000000CC000033CC000066CC000099CC0000CCCC0000FFCC000000FF000033FF000066FF000099FF0000CCFF0000FFFF000000003300330033006600330099003300CC003300FF003300003333003333
310
33006633330099333300CC333300FF33330000663300336633006666330099663300CC663300FF66330000993300339933006699330099993300CC993300FF99330000CC330033CC330066CC330099CC3300CCCC3300FFCC330000FF330033FF330066FF330099FF3300CCFF3300FFFF330000006600330066006600660099
310
006600CC006600FF00660000336600333366006633660099336600CC336600FF33660000666600336666006666660099666600CC666600FF66660000996600339966006699660099996600CC996600FF99660000CC660033CC660066CC660099CC6600CCCC6600FFCC660000FF660033FF660066FF660099FF6600CCFF6600
310
FFFF660000009900330099006600990099009900CC009900FF00990000339900333399006633990099339900CC339900FF33990000669900336699006666990099669900CC669900FF66990000999900339999006699990099999900CC999900FF99990000CC990033CC990066CC990099CC9900CCCC9900FFCC990000FF99
310
0033FF990066FF990099FF9900CCFF9900FFFF99000000CC003300CC006600CC009900CC00CC00CC00FF00CC000033CC003333CC006633CC009933CC00CC33CC00FF33CC000066CC003366CC006666CC009966CC00CC66CC00FF66CC000099CC003399CC006699CC009999CC00CC99CC00FF99CC0000CCCC0033CCCC0066CC
310
CC0099CCCC00CCCCCC00FFCCCC0000FFCC0033FFCC0066FFCC0099FFCC00CCFFCC00FFFFCC000000FF003300FF006600FF009900FF00CC00FF00FF00FF000033FF003333FF006633FF009933FF00CC33FF00FF33FF000066FF003366FF006666FF009966FF00CC66FF00FF66FF000099FF003399FF006699FF009999FF00CC
310
99FF00FF99FF0000CCFF0033CCFF0066CCFF0099CCFF00CCCCFF00FFCCFF0000FFFF0033FFFF0066FFFF0099FFFF00CCFFFF00FFFFFF00000000000D0D0D001A1A1A00282828003535350043434300505050005D5D5D006B6B6B00787878008686860093939300A1A1A100AEAEAE00BBBBBB00C9C9C900D6D6D600E4E4E400
310
F1F1F100FFFFFF0000000000000000000000000000000000000000000000000000000000000000000000000000000000EFEFEFEFE2E2E2E2E2E2E2E2E2E2E2E2E2E2E2E2E2E2E2E2E2E2E2E2E2E2E2E2E2E2E2E2E2E2E2E2E2E2E2E2E2E2E2E2E2E2E2E2E2E2E2E2E2E2E2E2E2E2E2E2E2E2E2E2E2E2E2E2E2E2E2E2E2E2E2
310
E2E2E2E2E2E2E2E2E2E2E2E2E2E2E2E2E2E2E2E2E2E2E2E2E2E2E2E2E2E2E2E2E2E2E2E2E2E2E2E2E2E2E2E2E2E2E2E2E2E2E2E2E2E2E2E2E2E2E2E2E2E2E2E2E2E2E2E2E2E2E2E2E2E2E2E2E2E2E2E2E2E2E2E2E2E2E2E2E2E2E2E2E2E2E2E2E2E2E2E2E2E2E2E2E2E2E2E2E2E2E2E2E2E2E2E2E2E2E2E2E2E2E2E2E2E2E2
310
E2E2E2E2E2E2E2E2E2E2E2E2E2E2E2E2E2E2E2E2E2E2E2E2E2E2E2E2E2E2E2E2E2E2E2E2E2E2E2E2E2E2E2E2E2E2E2E2E2E2EFE2E2E2E2E2E2E2E2E2E2E2E2E2E2E2E2E2E2E2E2E2E2E2E2E2E2E2E2E2E2E2E2E2E2E2E2E2E2E2E2E2E2E2E2E2E2E2E2E2E2E2E2E2E2E2E2E2E2E2E2E2E2E2E2E2E2E2E2E2E2E2E2E2E2E2E2
310
E2E2E2E2E2E2E2E2E2E2E2E2E2E2E2E2E2E2E2E2E2E2E2E2E2E2E2E2E2E2E2E2E2E2E2E2E2E2E2E2E2E2E2E2E2E2E2E2E2E2E2E2E2E2E2E2E2E2E2E2E2E2E2E2E2E2E2E2E2E2E2E2E2E2E2E2E2E2E2E2E2E2E2E2E2E2E2E2E2E2E2E2E2E2E2E2E2E2E2E2E2E2E2E2E2E2E2E2E2E2E2E2E2E2E2E2E2E2E2E2E2E2E2E2E2E2E2
310
E2E2E2E2E2E2E2E2E2E2E2E2E2E2E2E2E2E2E2E2E2E2E2E2E2E2E2E2E2E2E2E2E2E2E2E2E2E2E2E2E2E2E2E2E2E2E2E2E2E2E2E2EFE2F5F5F5F5F5F5F5F5F5F5F5F5F5F5F5F5F5F5F5F5F5F5F5F5F5F5F5F5F5F5F5F5F5F5F5F5F5F5F5F5F5F5F5F5F5F5F5F5F5F5F5F5F5F5F5F5F5F5F5F5F5F5F5F5F5F5F5F5F5F5F5F5F5
310
F5F5F5F5F5F5F5F5F5F5F5F5F5F5F5F5F5F5F5F5F5F5F5F5F5F5F5F5F5F5F5F5F5F5F5F5F5F5F5F5F5F5F5F5F5F5F5F5F5F5F5F5F5F5F5F5F5F5F5F5F5F5F5F5F5F5F5F5F5F5F5F5F5F5F5F5F5F5F5F5F5F5F5F5F5F5F5F5F5F5F5F5F5F5F5F5F5F5F5F5F5F5F5F5F5F5F5F5F5F5F5F5F5F5F5F5F5F5F5F5F5F5F5F5F5F5F5
310
F5F5F5F5F5F5F5F5F5F5F5F5F5F5F5F5F5F5F5F5F5F5F5F5F5F5F5F5F5F5F5F5F5F5F5F5F5F5F5F5F5F5F5F5F5F5F5F5F5F5F5F5E2E2EFE2F5F5F5F5F5F5F5F5F5F5F5F5F5F5F5F5F5F5F5F5F5F5F5F5F5F5F5F5F5F5F5F5F5F5F5F5F5F5F5F5F5F5F5F5F5F5F5F5F5F5F5F5F5F5F5F5F5F5F5F5F5F5F5F5F5F5F5F5F5F5F5
310
F5F5F5F5F5F5F5F5F5F5F5F5F5F5F5F5F5F5F5F5F5F5F5F5F5F5F5F5F5F5F5F5F5F5F5F5F5F5F5F5F5F5F5F5F5F5F5F5F5F5F5F5F5F5F5F5F5F5F5F5F5F5F5F5F5F5F5F5F5F5F5F5F5F5F5F5F5F5F5F5F5F5F5F5F5F5F5F5F5F5F5F5F5F5F5F5F5F5F5F5F5F5F5F5F5F5F5F5F5F5F5F5F5F5F5F5F5F5F5F5F5F5F5F5F5F5F5
310
F5F5F5F5F5F5F5F5F5F5F5F5F5F5F5F5F5F5F5F5F5F5F5F5F5F5F5F5F5F5F5F5F5F5F5F5F5F5F5F5F5F5F5F5F5F5F5F5F5F5F5F5F5F5E2E2EFE2F5F5F5F5F5F5F5F5F5F5F5F5F5F5F5F5F5F5F5F5F5F5F5F5F5F5F5F5F5F5F5F5F5F5F5F5F5F5F5F5F5F5F5F5F5F5F5F5F5F5F5F5F5F5F5F5F5F5F5F5F5F5F5F5F5F5F5F5F5
310
F5F5F5F5F5F5F5F5F5F5F5F5F5F5F5F5F5F5F5F5F5F5F5F5F5F5F5F5F5F5F5F5F5F5F5F5F5F5F5F5F5F5F5F5F5F5F5F5F5F5F5F5F5F5F5F5F5F5F5F5F5F5F5F5F5F5F5F5F5F5F5F5F5F5F5F5F5F5F5F5F5F5F5F5F5F5F5F5F5F5F5F5F5F5F5F5F5F5F5F5F5F5F5F5F5F5F5F5F5F5F5F5F5F5F5F5F5F5F5F5F5F5F5F5F5F5F5
310
F5F5F5F5F5F5F5F5F5F5F5F5F5F5F5F5F5F5F5F5F5F5F5F5F5F5F5F5F5F5F5F5F5F5F5F5F5F5F5F5F5F5F5F5F5F5F5F5F5F5F5F5F5F5F5F5E2E2EFE2F5F5F5F5F5F5F5F5F5F5F5F5F5F5F5F5F5F5F5F5F5F5F5F5F5F5F5F5F5F5F5F5F5F5F5F5F5F5F5F5F5F5F5F5F5F5F5F5F5F5F5F5F5F5F5F5F5F5F5F5F5F5F5F5F5F5F5
310
F5F5F5F5F5F5F5F5F5F5F5F5F5F5F5F5F5F5F5F5F5F5F5F5F5F5F5F5F5F5F5F5F5F5F5F5F5F5F5F5F5F5F5F5F5F5F5F5F5F5F5F5F5F5F5F5F5F5F5F5F5F5F5F5F5F5F5F5F5F5F5F5F5F5F5F5F5F5F5F5F5F5F5F5F5F5F5F5F5F5F5F5F5F5F5F5F5F5F5F5F5F5F5F5F5F5F5F5F5F5F5F5F5F5F5F5F5F5F5F5F5F5F5F5F5F5F5
310
F5F5F5F5F5F5F5F5F5F5F5F5F5F5F5F5F5F5F5F5F5F5F5F5F5F5F5F5F5F5F5F5F5F5F5F5F5F5F5F5F5F5F5F5F5F5F5F5F5F5F5F5F5F5F5F5F5F5E2E2EFE2F5F5F5F5F5F5F5F5F5F5F5F5F5F5F5F5F5F5F5F5F5F5F5F5F5F5F5F5F5F5F5F5F5F5F5F5F5F5F5F5F5F5F5F5F5F5F5F5F5F5F5F5F5F5F5F5F5F5F5F5F5F5F5F5F5
310
F5F5F5F5F5F5F5F5F5F5F5F5F5F5F5F5F5F5F5F5F5F5F5F5F5F5F5F5F5F5F5F5F5F5F5F5F5F5F5F5F5F5F5F5F5F5F5F5F5F5F5F5F5F5F5F5F5F5F5F5F5F5F5F5F5F5F5F5F5F5F5F5F5F5F5F5F5F5F5F5F5F5F5F5F5F5F5F5F5F5F5F5F5F5F5F5F5F5F5F5F5F5F5F5F5F5F5F5F5F5F5F5F5F5F5F5F5F5F5F5F5F5F5F5F5F5F5
310
F5F5F5F5F5F5F5F5F5F5F5F5F5F5F5F5F5F5F5F5F5F5F5F5F5F5F5F5F5F5F5F5F5F5F5F5F5F5F5F5F5F5F5F5F5F5F5F5F5F5F5F5F5F5F5F5F5F5F5F5E2E2EFE2F5F5F5F5F5E2E2E2E2E2E2E2E2E2E2E2E2E2E2E2E2E2E2E2E2E2E2E2E2E2E2E2E2E2E2E2E2E2E2E2E2E2E2E2E2E2E2E2E2E2E2E2E2E2E2E2E2E2E2E2E2E2E2
310
E2E2E2E2E2E2E2E2E2E2E2E2E2E2E2E2E2E2E2E2E2E2E2E2E2E2E2E2E2E2E2E2E2E2E2E2E2E2E2E2E2E2E2E2E2E2E2E2E2E2E2E2E2E2E2E2E2E2E2E2E2E2E2E2E2E2E2E2E2E2E2E2E2E2E2E2E2E2E2E2E2E2E2E2E2E2E2E2E2E2E2E2E2E2E2E2E2E2E2E2E2E2E2E2E2E2E2E2E2E2E2E2E2E2E2E2E2E2E2E2E2E2E2E2E2E2E2
310
E2E2E2E2E2E2E2E2E2E2E2E2E2E2E2E2E2E2E2E2E2E2E2E2E2E2E2E2E2E2E2E2E2E2E2E2E2E2E2E2E2E2E2E2E2E2E2E2E2E2E2E2E2E2E2E2E2F5F5F5F5F5E2E2EFE2F5F5F5F5F5E2F5F5F5F5F5F5F5F5F5F5F5F5F5F5F5F5F5F5F5F5F5F5F5F5F5F5F5F5F5F5F5F5F5F5F5F5F5F5F5F5F5F5F5F5F5F5F5F5F5F5F5F5F5F5F5
310
F5F5F5F5F5F5F5F5F5F5F5F5F5F5F5F5F5F5F5F5F5F5F5F5F5F5F5F5F5F5F5F5F5F5F5F5F5F5F5F5F5F5F5F5F5F5F5F5F5F5F5F5F5F5F5F5F5F5F5F5F5F5F5F5F5F5F5F5F5F5F5F5F5F5F5F5F5F5F5F5F5F5F5F5F5F5F5F5F5F5F5F5F5F5F5F5F5F5F5F5F5F5F5F5F5F5F5F5F5F5F5F5F5F5F5F5F5F5F5F5F5F5F5F5F5F5F5
310
F5F5F5F5F5F5F5F5F5F5F5F5F5F5F5F5F5F5F5F5F5F5F5F5F5F5F5F5F5F5F5F5F5F5F5F5F5F5F5F5F5F5F5F5F5F5F5F5F5F5F5F5F5F5F5F5F5F5E2F5F5F5F5F5E2E2EFE2F5F5F5F5F5E2F5F5F5F5F5F5F5F5F5F5F5F5F5F5F5F5F5F5F5F5F5F5F5F5F5F5F5F5F5F5F5F5F5F5F5F5F5F5F5F5F5F5F5F5F5F5F5F5F5F5F5F5F5
310
F5F5F5F5F5F5F5F5F5F5F5F5F5F5F5F5F5F5F5F5F5F5F5F5F5F5F5F5F5F5F5F5F5F5F5F5F5F5F5F5F5F5F5F5F5F5F5F5F5F5F5F5F5F5F5F5F5F5F5F5F5F5F5F5F5F5F5F5F5F5F5F5F5F5F5F5F5F5F5F5F5F5F5F5F5F5F5F5F5F5F5F5F5F5F5F5F5F5F5F5F5F5F5F5F5F5F5F5F5F5F5F5F5F5F5F5F5F5F5F5F5F5F5F5F5F5F5
310
F5F5F5F5F5F5F5F5F5F5F5F5F5F5F5F5F5F5F5F5F5F5F5F5F5F5F5F5F5F5F5F5F5F5F5F5F5F5F5F5F5F5F5F5F5F5F5F5F5F5F5F5F5F5F5F5F5F5F5F5E2F5F5F5F5F5E2E2EFE2F5F5F5F5F5E2F5F5F5F5F5F5F5F5F5F5F5F5F5F5F5F5F5F5F5F5F5F5F5F5F5F5F5F5F5F5F5F5F5F5F5F5F5F5F5F5F5F5F5F5F5F5F5F5F5F5F5
310
F5F5F5F5F5F5F5F5F5F5F5F5F5F5F5F5F5F5F5F5F5F5F5F5F5F5F5F5F5F5F5F5F5F5F5F5F5F5F5F5F5F5F5F5F5F5F5F5F5F5F5F5F5F5F5F5F5F5F5F5F5F5F5F5F5F5F5F5F5F5F5F5F5F5F5F5F5F5F5F5F5F5F5F5F5F5F5F5F5F5F5F5F5F5F5F5F5F5F5F5F5F5F5F5F5F5F5F5F5F5F5F5F5F5F5F5F5F5F5F5F5F5F5F5F5F5F5
310
F5F5F5F5F5F5F5F5F5F5F5F5F5F5F5F5F5F5F5F5F5F5F5F5F5F5F5F5F5F5F5F5F5F5F5F5F5F5F5F5F5F5F5F5F5F5F5F5F5F5F5F5F5F5F5F5F5F5F5F5F5F5E2F5F5F5F5F5E2E2EFE2F5F5F5F5F5E2F5F5F5F5F5F5F5F5F5F5F5F5F5F5F5F5F5F5F5F5F5F5F5F5F5F5F5F5F5F5F5F5F5F5F5F5F5F5F5F5F5F5F5F5F5F5F5F5F5
310
F5F5F5F5F5F5F5F5F5F5F5F5F5F5F5F5F5F5F5F5F5F5F5F5F5F5F5F5F5F5F5F5F5F5F5F5F5F5F5F5F5F5F5F5F5F5F5F5F5F5F5F5F5F5F5F5F5F5F5F5F5F5F5F5F5F5F5F5F5F5F5F5F5F5F5F5F5F5F5F5F5F5F5F5F5F5F5F5F5F5F5F5F5F5F5F5F5F5F5F5F5F5F5F5F5F5F5F5F5F5F5F5F5F5F5F5F5F5F5F5F5F5F5F5F5F5F5
310
F5F5F5F5F5F5F5F5F5F5F5F5F5F5F5F5F5F5F5F5F5F5F5F5F5F5F5F5F5F5F5F5F5F5F5F5F5F5F5F5F5F5F5F5F5F5F5F5F5F5F5F5F5F5F5F5F5F5F5F5F5F5F5F5E2F5F5F5F5F5E2E2EFE2F5F5F5F5F5E2F5F5F5F5F5F5F5F5F5F5F5F5F5F5F5F5F5F5F5F5F5F5F5F5F5F5F5F5F5F5F5F5F5F5F5F5F5F5F5F5F5F5F5F5F5F5F5
310
F5F5F5F5F5F5F5F5F5F5F5F5F5F5F5F5F5F5F5F5F5F5F5F5F5F5F5F5F5F5F5F5F5F5F5F5F5F5F5F5F5F5F5F5F5F5F5F5F5F5F5F5F5F5F5F5F5F5F5F5F5F5F5F5F5F5F5F5F5F5F5F5F5F5F5F5F5F5F5F5F5F5F5F5F5F5F5F5F5F5F5F5F5F5F5F5F5F5F5F5F5F5F5F5F5F5F5F5F5F5F5F5F5F5F5F5F5F5F5F5F5F5F5F5F5F5F5
310
F5F5F5F5F5F5F5F5F5F5F5F5F5F5F5F5F5F5F5F5F5F5F5F5F5F5F5F5F5F5F5F5F5F5F5F5F5F5F5F5F5F5F5F5F5F5F5F5F5F5F5F5F5F5F5F5F5F5F5F5F5F5F5F5F5F5E2F5F5F5F5F5E2E2EFE2F5F5F5F5F5E2F5F5F5F5F5F5F5F5F5F5F5F5F5F5F5F5F5F5F5F5F5F5F5F5F5F5F5F5F5F5F5F5F5F5F5F5F5F5F5F5F5F5F5F5F5
310
F5F5F5F5F5F5F5F5F5F5F5F5F5F5F5F5F5F5F5F5F5F5F5F5F5F5F5F5F5F5F5F5F5F5F5F5F5F5F5F5F5F5F5F5F5F5F5F5F5F5F5F5F5F5F5F5F5F5F5F5F5F5F5F5F5F5F5F5F5F5F5F5F5F5F5F5F5F5F5F5F5F5F5F5F5F5F5F5F5F5F5F5F5F5F5F5F5F5F5F5F5F5F5F5F5F5F5F5F5F5F5F5F5F5F5F5F5F5F5F5F5F5F5F5F5F5F5
310
F5F5F5F5F5F5F5F5F5F5F5F5F5F5F5F5F5F5F5F5F5F5F5F5F5F5F5F5F5F5F5F5F5F5F5F5F5F5F5F5F5F5F5F5F5F5F5F5F5F5F5F5F5F5F5F5F5F5F5F5F5F5F5F5F5F5F5F5E2F5F5F5F5F5E2E2EFE2F5F5F5F5F5E2F5F5F5F5F5F5F5F5F5F5F5F5F5F5F5F5F5F5F5F5F5F5F5F5F5F5F5F5F5F5F5F5F5F5F5F5F5F5F5F5F5F5F5
310
F5F5F5F5F5F5F5F5F5F5F5F5F5F5F5F5F5F5F5F5F5F5F5F5F5F5F5F5F5F5F5F5F5F5F5F5F5F5F5F5F5F5F5F5F5F5F5F5F5F5F5F5F5F5F5F5F5F5F5F5F5F5F5F5F5F5F5F5F5F5F5F5F5F5F5F5F5F5F5F5F5F5F5F5F5F5F5F5F5F5F5F5F5F5F5F5F5F5F5F5F5F5F5F5F5F5F5F5F5F5F5F5F5F5F5F5F5F5F5F5F5F5F5F5F5F5F5
310
F5F5F5F5F5F5F5F5F5F5F5F5F5F5F5F5F5F5F5F5F5F5F5F5F5F5F5F5F5F5F5F5F5F5F5F5F5F5F5F5F5F5F5F5F5F5F5F5F5F5F5F5F5F5F5F5F5F5F5F5F5F5F5F5F5F5F5F5F5F5E2F5F5F5F5F5E2E2EFE2F5F5F5F5F5E2F5F5F5F5F5F5F5F5F5F5F5F5F5F5F5F5F5F5F5F5F5F5F5F5F5F5F5F5F5F5F5F5F5F5F5F5F5F5F5F5F5
310
F5F5F5F5F5F5F5F5F5F5F5F5F5F5F5F5F5F5F5F5F5F5F5F5F5F5F5F5F5F5F5F5F5F5F5F5F5F5F5F5F5F5F5F5F5F5F5F5F5F5F5F5F5F5F5F5F5F5F5F5F5F5F5F5F5F5F5F5F5F5F5F5F5F5F5F5F5F5F5F5F5F5F5F5F5F5F5F5F5F5F5F5F5F5F5F5F5F5F5F5F5F5F5F5F5F5F5F5F5F5F5F5F5F5F5F5F5F5F5F5F5F5F5F5F5F5F5
310
F5F5F5F5F5F5F5F5F5F5F5F5F5F5F5F5F5F5F5F5F5F5F5F5F5F5F5F5F5F5F5F5F5F5F5F5F5F5F5F5F5F5F5F5F5F5F5F5F5F5F5F5F5F5F5F5F5F5F5F5F5F5F5F5F5F5F5F5F5F5F5F5E2F5F5F5F5F5E2E2EFE2F5F5F5F5F5E2F5F5F5F5F5F5F5F5F5F5F5F5F5F5F5F5F5F5F5F5F5F5F5F5F5F5F5F5F5F5F5F5F5F5F5F5F5F5F5
310
F5F5F5F5F5F5F5F5F5F5F5F5F5F5F5F5F5F5F5F5F5F5F5F5F5F5F5F5F5F5F5F5F5F5F5F5F5F5F5F5F5F5F5F5F5F5F5F5F5F5F5F5F5F5F5F5F5F5F5F5F5F5F5F5F5F5F5F5F5F5F5F5F5F5F5F5F5F5F5F5F5F5F5F5F5F5F5F5F5F5F5F5F5F5F5F5F5F5F5F5F5F5F5F5F5F5F5F5F5F5F5F5F5F5F5F5F5F5F5F5F5F5F5F5F5F5F5
310
F5F5F5F5F5F5F5F5F5F5F5F5F5F5F5F5F5F5F5F5F5F5F5F5F5F5F5F5F5F5F5F5F5F5F5F5F5F5F5F5F5F5F5F5F5F5F5F5F5F5F5F5F5F5F5F5F5F5F5F5F5F5F5F5F5F5F5F5F5F5F5F5F5F5E2F5F5F5F5F5E2E2EFE2F5F5F5F5F5E2F5F5F5F5F5F5F5F5F5F5F5F5F5F5F5F5F5F5F5F5F5F5F5F5F5F5F5F5F5F5F5F5F5F5F5F5F5
310
F5F5F5F5F5F5F5F5F5F5F5F5F5F5F5F5F5F5F5F5F5F5F5F5F5F5F5F5F5F5F5F5F5F5F5F5F5F5F5F5F5F5F5F5F5F5F5F5F5F5F5F5F5F5F5F5F5F5F5F5F5F5F5F5F5F5F5F5F5F5F5F5F5F5F5F5F5F5F5F5F5F5F5F5F5F5F5F5F5F5F5F5F5F5F5F5F5F5F5F5F5F5F5F5F5F5F5F5F5F5F5F5F5F5F5F5F5F5F5F5F5F5F5F5F5F5F5
310
F5F5F5F5F5F5F5F5F5F5F5F5F5F5F5F5F5F5F5F5F5F5F5F5F5F5F5F5F5F5F5F5F5F5F5F5F5F5F5F5F5F5F5F5F5F5F5F5F5F5F5F5F5F5F5F5F5F5F5F5F5F5F5F5F5F5F5F5F5F5F5F5F5F5F5F5E2F5F5F5F5F5E2E2EFE2F5F5F5F5F5E2F5F5F5F5F5F5F5F5F5F5F5F5F5F5F5F5F5F5F5F5F5F5F5F5F5F5F5F5F5F5F5F5F5F5F5
310
F5F5F5F5F5F5F5F5F5F5F5F5F5F5F5F5F5F5F5F5F5F5F5F5F5F5F5F5F5F5F5F5F5F5F5F5F5F5F5F5F5F5F5F5F5F5F5F5F5F5F5F5F5F5F5F5F5F5F5F5F5F5F5F5F5F5F5F5F5F5F5F5F5F5F5F5F5F5F5F5F5F5F5F5F5F5F5F5F5F5F5F5F5F5F5F5F5F5F5F5F5F5F5F5F5F5F5F5F5F5F5F5F5F5F5F5F5F5F5F5F5F5F5F5F5F5F5
310
F5F5F5F5F5F5F5F5F5F5F5F5F5F5F5F5F5F5F5F5F5F5F5F5F5F5F5F5F5F5F5F5F5F5F5F5F5F5F5F5F5F5F5F5F5F5F5F5F5F5F5F5F5F5F5F5F5F5F5F5F5F5F5F5F5F5F5F5F5F5F5F5F5F5F5F5F5F5E2F5F5F5F5F5E2E2EFE2F5F5F5F5F5E2F5F5F5F5F5F5F5F5F5F5F5F5F5F5F5F5F5F5F5F5F5F5F5F5F5F5F5F5F5F5F5F5F5
310
F5F5F5F5F5F5F5F5F5F5F5F5F5F5F5F5F5F5F5F5F5F5F5F5F5F5F5F5F5F5F5F5F5F5F5F5F5F5F5F5F5F5F5F5F5F5F5F5F5F5F5F5F5F5F5F5F5F5F5F5F5F5F5F5F5F5F5F5F5F5F5F5F5F5F5F5F5F5F5F5F5F5F5F5F5F5F5F5F5F5F5F5F5F5F5F5F5F5F5F5F5F5F5F5F5F5F5F5F5F5F5F5F5F5F5E2E2F5E2E2F5E2E2F5E2E2E2
310
E2E2F5F5F5F5F5F5F5F5F5F5F5F5F5F5F5F5F5F5F5F5F5F5F5F5F5F5F5F5F5F5F5F5F5F5F5F5F5F5F5F5F5F5F5F5F5F5F5F5F5F5F5F5F5F5F5F5F5F5F5F5F5F5F5F5F5F5F5F5F5F5F5F5F5F5F5F5F5F5E2F5F5F5F5F5E2E2EFE2F5F5F5F5F5E2F5F5F5F5F5F5F5F5F5F5F5F5F5F5F5F5F5F5F5F5F5F5F5F5F5F5F5F5F5F5F5
310
F5F5F5F5F5F5F5F5F5F5F5F5F5F5F5F5F5F5F5F5F5F5F5F5F5F5F5F5F5F5F5F5F5F5F5F5F5F5F5F5F5F5F5F5F5F5F5F5F5F5F5F5F5F5F5F5F5F5F5F5F5F5F5F5F5F5F5F5F5F5F5F5F5F5F5F5F5F5F5F5F5F5F5F5F5F5F5F5F5F5F5F5F5F5F5F5F5F5F5F5F5F5F5F5F5F5F5F5F5F5F5F5F5F5F5F5F5E2F5E2E2E2E2E2E2F5E2
310
E2E2F5E2F5F5F5F5F5F5F5F5F5F5F5F5F5F5F5F5F5F5F5F5F5F5F5F5F5F5F5F5F5F5F5F5F5F5F5F5F5F5F5F5F5F5F5F5F5F5F5F5F5F5F5F5F5F5F5F5F5F5F5F5F5F5F5F5F5F5F5F5F5F5F5F5F5F5F5F5F5F5E2F5F5F5F5F5E2E2EFE2F5F5F5F5F5E2F5F5F5F5F5F5F5F5F5F5F5F5F5F5F5F5F5F5F5F5F5F5F5F5F5F5F5F5F5
310
F5F5F5F5F5F5F5F5F5F5F5F5F5F5F5F5F5F5F5F5F5F5F5F5F5F5F5F5F5F5F5F5F5F5F5F5F5F5F5F5F5F5F5F5F5F5F5E2F5F5F5F5F5F5F5F5F5F5F5F5F5F5F5F5F5F5F5F5F5F5F5F5F5F5F5F5F5F5F5F5F5F5F5F5F5F5F5F5F5F5F5F5F5F5F5F5F5F5F5F5F5F5F5F5F5F5F5F5F5F5F5F5F5F5F5F5F5F5F5F5E2E2E2E2E2F5E2
310
E2E2F5E2E2E2F5F5F5F5F5F5F5F5F5F5F5F5F5F5F5F5F5F5F5F5F5F5F5F5F5F5F5F5F5F5F5F5F5F5F5F5F5F5F5F5F5F5F5F5F5F5F5F5F5F5F5F5F5F5F5F5F5F5F5F5F5F5F5F5F5F5F5F5F5F5F5F5F5F5F5F5F5F5E2F5F5F5F5F5E2E2EFE2F5F5F5F5F5E2F5F5F5F5F5F5F5F5F5F5F5F5F5F5F5F5F5F5F5F5F5F5F5F5F5F5F5
310
F5F5F5F5F5F5F5F5F5F5F5F5F5F5F5F5F5F5F5F5F5F5F5F5F5F5F5F5F5F5F5F5F5F5F5F5F5F5F5F5F5F5F5F5F5F5F5F5F5E2F5F5F5F5F5F5F5F5F5F5F5F5F5F5F5F5F5F5F5F5F5F5F5F5F5F5F5F5F5F5F5F5F5F5F5F5F5F5F5F5F5F5F5F5F5F5F5F5F5F5F5F5F5F5F5F5F5F5F5F5F5F5F5F5F5F5F5F5F5F5F5E2E2E2E2E2F5
310
E2E2E2E2F5E2E2E2F5F5F5F5F5F5F5F5F5F5F5F5F5F5F5F5F5F5F5F5F5F5F5F5F5F5F5F5F5F5F5F5F5F5F5F5F5F5F5F5F5F5F5F5F5F5F5F5F5F5F5F5F5F5F5F5F5F5F5F5F5F5F5F5F5F5F5F5F5F5F5F5F5F5F5F5F5F5E2F5F5F5F5F5E2E2EFE2F5F5F5F5F5E2F5F5F5F5F5F5F5F5F5F5F5F5F5F5F5F5F5F5F5F5F5F5F5F5F5
310
F5F5F5F5F5F5F5F5F5F5F5F5F5F5F5F5F5F5F5F5F5F5F5F5F5F5F5F5F5F5F5F5F5F5F5F5F5F5F5F5F5F5F5F5F5F5F5F5F5F5F5E2F5F5F5F5F5F5F5F5F5F5F5F5F5F5F5F5F5F5F5F5F5F5F5F5F5F5F5F5F5F5F5F5F5F5F5F5F5F5F5F5F5F5F5F5F5F5F5F5F5F5F5F5F5F5F5F5F5F5F5F5F5F5F5F5F5F5F5F5F5F5F5F5F5F5F5
310
F5F5F5F5F5F5F5F5F5F5F5F5F5F5F5F5F5F5F5F5F5F5F5F5F5F5F5F5F5F5F5F5F5F5F5F5F5F5F5F5F5F5F5F5F5F5F5F5F5F5F5F5F5F5F5F5F5F5F5F5F5F5F5F5F5F5F5F5F5F5F5F5F5F5F5F5F5F5F5F5F5F5F5F5F5F5F5F5E2F5F5F5F5F5E2E2EFE2F5F5F5F5F5E2F5F5F5F5F5F5F5F5F5F5F5F5F5F5F5F5F5F5F5F5F5F5F5
310
F5F5F5F5F5F5F5F5F5F5F5F5F5F5F5F5F5F5F5F5F5F5F5F5F5F5F5F5F5F5F5F5F5F5F5F5F5F5F5F5F5F5F5F5F5F5F5F5F5F5F5F5E2E2F5F5F5F5F5F5F5F5F5F5F5F5F5F5F5F5F5F5F5F5F5F5F5F5F5F5F5F5F5F5F5F5F5F5F5F5F5F5F5F5F5F5F5F5F5F5F5F5F5F5F5F5F5F5F5F5F5F5F5F5F5F5F5F5F5F5F5F5F5F5F5F5F5
310
F5F5F5F5F5F5F5F5F5F5F5F5F5F5F5F5F5F5F5F5F5F5F5F5F5F5F5F5F5F5F5F5F5F5F5F5F5F5F5F5F5F5F5F5F5F5F5F5F5F5F5F5F5F5F5F5F5F5F5F5F5F5F5F5F5F5F5F5F5F5F5F5F5F5F5F5F5F5F5F5F5F5F5F5F5F5F5F5F5F5E2F5F5F5F5F5E2E2EFE2F5F5F5F5F5E2F5F5F5F5F5F5F5F5F5F5F5F5F5F5F5F5F5F5F5F5F5
310
F5F5F5F5F5F5F5F5F5F5F5F5F5F5F5F5F5F5F5F5F5F5F5F5F5F5F5F5F5F5F5F5F5F5F5F5F5F5F5F5F5F5F5F5F5F5F5F5F5F5F5F5F5F5E2E2F5F5F5F5F5F5F5F5F5F5F5F5F5F5F5F5F5F5F5F5F5F5F5F5F5F5F5F5F5F5F5F5F5F5F5F5F5F5F5F5F5F5F5F5F5F5F5F5F5F5F5F5F5F5F5F5F5F5F5F5F5F5F5F5F5F5F5F5F5F5F5
310
F5F5F5F5F5F5F5F5F5F5F5F5F5F5F5F5F5F5F5F5F5F5F5F5F5F5F5F5F5F5F5F5F5F5F5F5F5F5F5F5F5F5F5F5F5F5F5F5F5F5F5F5F5F5F5F5F5F5F5F5F5F5F5F5F5F5F5F5F5F5F5F5F5F5F5F5F5F5F5F5F5F5F5F5F5F5F5F5F5F5F5F5E2F5F5F5F5F5E2E2EFE2F5F5F5F5F5E2F5F5F5F5F5F5F5F5F5F5F5F5F5F5F5F5F5F5F5
310
F5F5F5F5F5F5F5F5F5F5F5F5F5F5F5F5F5F5F5F5F5F5F5F5F5F5F5F5F5F5F5F5F5F5F5F5F5F5F5F5F5F5F5F5F5F5F5F5F5F5F5F5F5F5F5F5F5E2F5F5F5F5F5F5F5F5F5F5F5F5F5F5F5F5F5F5F5F5F5F5F5F5F5F5F5F5F5F5F5F5F5F5F5F5F5F5F5F5F5F5F5F5F5F5F5F5F5F5F5F5F5F5F5F5F5F5F5F5F5F5F5F5F5F5F5F5F5
310
F5F5F5F5F5F5F5F5F5F5F5F5F5F5F5F5F5F5F5F5F5F5F5F5F5F5F5F5F5F5F5F5F5F5F5F5F5F5F5F5F5F5F5F5F5F5F5F5F5F5F5F5F5F5F5F5F5F5F5F5F5F5F5F5F5F5F5F5F5F5F5F5F5F5F5F5F5F5F5F5F5F5F5F5F5F5F5F5F5F5F5F5F5F5E2F5F5F5F5F5E2E2EFE2F5F5F5F5F5E2F5F5F5F5E2E2E2E2E2E2E2E2E2E2E2E2E2
310
E2E2E2E2E2E2E2E2E2E2E2E2E2E2E2E2E2E2E2E2E2E2E2E2E2E2E2E2E2E2E2E2E2E2E2E2E2E2E2E2E2E2E2E2E2E2E2E2E2E2E2E2E2E2E2E2E2E2E2E2E2E2E2E2E2E2E2E2E2E2E2E2E2E2E2E2E2E2F5F5F5F5F5F5F5F5F5F5F5F5F5F5F5F5F5F5F5F5F5F5F5F5F5F5F5F5F5F5F5F5F5F5F5F5F5F5F5F5F5F5F5F5F5F5F5F5F5
310
F5F5F5F5F5F5F5F5F5F5F5F5F5F5F5F5F5F5F5F5F5F5F5F5F5F5F5F5F5F5F5F5F5F5F5F5F5F5F5F5F5F5F5F5F5F5F5F5F5F5F5F5F5F5F5F5F5F5F5F5F5F5F5F5F5F5F5F5F5F5F5F5F5F5F5F5F5F5F5F5F5F5F5F5F5F5F5F5F5F5F5F5F5F5F5F5E2F5F5F5F5F5E2E2EFE2F5F5F5F5F5E2F5F5F5F5E2F5F5F5F5F5F5F5F5F5F5
310
E2F5F5F5F5F5F5F5F5F5F5F5F5F5F5F5F5F5F5F5F5F5F5F5F5F5F5F5F5F5F5F5F5F5E2F5F5F5F5F5F5F5F5F5F5E2F5F5F5F5F5F5F5F5F5F5F5F5F5F5F5F5F5F5F5F5F5F5F5F5F5F5F5F5F5F5F5F5E2F5F5F5F5F5F5F5F5F5F5F5F5F5F5F5F5F5F5F5F5F5F5F5F5F5F5F5F5F5F5F5F5F5F5F5F5F5F5F5F5F5F5F5F5F5F5F5F5
310
F5F5F5F5F5F5F5F5F5F5F5F5F5F5F5F5F5F5F5F5F5F5F5F5F5F5F5F5F5F5F5F5F5F5F5F5F5F5F5F5F5F5F5F5F5F5F5F5F5F5F5F5F5F5F5F5F5F5F5F5F5F5F5F5F5F5F5F5F5F5F5F5F5F5F5F5F5F5F5F5F5F5F5F5F5F5F5F5F5F5F5F5F5F5F5F5F5F5E2F5F5F5F5F5E2E2EFE2F5F5F5F5F5E2F5F5F5F5E2E2E2E2E2E2E2E2E2
310
E2E2F5F5F5F5F5F5F5F5F5F5F5F5F5F5F5F5F5F5F5F5F5F5F5F5F5F5F5F5F5F5F5F5F5F5F5E2E2E2E2E2E2E2E2E2E2E2F5F5F5F5F5F5F5F5F5F5F5F5F5F5F5F5F5F5F5F5F5F5F5F5F5F5F5F5F5F5F5E2E2F5F5F5F5F5F5F5F5F5F5F5F5F5F5F5F5F5F5F5F5F5F5F5F5F5F5F5F5F5F5F5F5F5F5F5F5F5F5F5F5F5F5F5F5F5F5
310
F5F5F5F5F5F5F5F5F5F5F5F5F5F5F5F5F5F5F5F5F5F5F5F5F5F5F5F5F5F5F5F5F5F5F5F5F5F5F5F5F5F5F5F5F5F5F5F5F5F5F5F5F5F5F5F5F5F5F5F5F5F5F5F5F5F5F5F5F5F5F5F5F5F5F5F5F5F5F5F5F5F5F5F5F5F5F5F5F5F5F5F5F5F5F5F5F5F5F5F5E2F5F5F5F5F5E2E2EFE2F5F5F5F5F5E2F5F5F5F5F5F5F5F5F5F5F5
310
F5F5F5E2F5F5F5F5F5F5F5F5F5F5F5F5F5F5F5F5F5F5F5F5F5F5F5F5F5F5F5F5F5F5F5F5F5F5F5E2F5F5F5F5F5F5F5F5F5F5F5F5F5F5F5F5F5F5F5F5F5F5F5F5F5F5F5F5F5F5F5F5F5F5F5F5F5F5F5F5F5E2E2F5F5F5F5F5F5F5F5F5F5F5F5F5F5F5F5F5F5F5F5F5F5F5F5F5F5F5F5F5F5F5F5F5F5F5F5F5F5F5F5F5F5F5F5
310
F5F5F5F5F5F5F5F5F5F5F5F5F5F5F5F5F5F5F5F5F5F5F5F5F5F5F5F5F5F5F5F5F5F5F5F5F5F5F5F5F5F5F5F5F5F5F5F5F5F5F5F5F5F5F5F5F5F5F5F5F5F5F5F5F5F5F5F5F5F5F5F5F5F5F5F5F5F5F5F5F5F5F5F5F5F5F5F5F5F5F5F5F5F5F5F5F5F5F5F5F5F5E2F5F5F5F5F5E2E2EFE2F5F5F5F5F5E2F5F5F5F5F5F5F5F5F5
310
F5F5E2E2E2E2F5F5F5F5F5F5F5F5F5F5F5F5F5F5F5F5F5F5F5F5F5F5F5F5F5F5F5F5F5F5F5F5F5F5F5E2E2E2E2F5F5F5F5F5F5F5F5F5F5F5F5F5F5F5F5F5F5F5E2E2E2E2E2E2E2F5F5F5F5F5F5F5F5F5F5F5F5F5E2F5F5F5F5F5F5F5F5F5F5F5F5F5F5F5F5F5F5F5F5F5F5F5F5F5F5F5F5F5F5F5F5F5F5F5F5F5F5F5F5F5F5
310
F5F5F5F5F5F5F5F5F5F5F5F5F5F5F5F5F5F5F5F5F5F5F5F5F5F5F5F5F5F5F5F5F5F5F5F5F5F5F5F5F5F5F5F5F5F5F5F5F5F5F5F5F5F5F5F5F5F5F5F5F5F5F5F5F5F5F5F5F5F5F5F5F5F5F5F5F5F5F5F5F5F5F5F5F5F5F5F5F5F5F5F5F5F5F5F5F5F5F5F5F5F5F5F5E2F5F5F5F5F5E2E2EFE2F5F5F5F5F5E2F5F5F5F5F5F5F5
310
F5F5F5F5E2F5F5E2F5F5F5F5F5F5F5F5F5F5F5F5F5F5E2E2E2E2E2E2F5F5F5F5F5F5F5F5F5F5F5F5F5F5F5E2F5F5E2F5F5F5F5F5F5F5F5F5F5F5F5F5F5F5F5F5F5F5E2F5E2F5E2E2E2F5F5F5F5F5F5F5F5F5F5F5F5F5E2F5F5F5F5F5F5F5F5F5F5F5F5F5F5F5F5F5F5F5F5F5F5F5F5F5F5F5F5F5F5F5F5F5F5F5F5F5F5F5F5
310
F5F5F5F5F5F5F5F5F5F5F5F5F5F5F5F5F5F5F5F5F5F5F5F5F5F5F5F5F5F5F5F5F5F5F5F5F5F5F5F5F5F5F5F5F5F5F5F5F5F5F5F5F5F5F5F5F5F5F5F5F5F5F5F5F5F5F5F5F5F5F5F5F5F5F5F5F5F5F5F5F5F5F5F5F5F5F5F5F5F5F5F5F5F5F5F5F5F5F5F5F5F5F5F5F5F5E2F5F5F5F5F5E2E2EFE2F5F5F5F5F5E2F5F5F5F5F5
310
F5F5F5F5F5F5E2F5F5E2F5F5F5F5F5F5F5F5F5F5F5F5F5F5E2F5F5E2F5F5E2F5F5F5F5F5F5F5F5F5F5F5F5F5F5E2F5F5E2F5F5F5F5F5F5F5F5F5F5F5F5F5F5F5F5F5F5E2E2F5E2E2E2E2E2F5F5F5F5F5F5F5F5F5F5F5F5F5E2F5F5F5F5F5F5F5F5F5F5F5F5F5F5F5F5F5F5F5F5F5F5F5F5F5F5F5F5F5F5F5F5F5F5F5F5F5F5
310
F5F5F5F5F5F5F5F5F5F5F5F5F5F5F5F5F5F5F5F5F5F5F5F5F5F5F5F5F5F5F5F5F5F5F5F5F5F5F5F5F5F5F5F5F5F5F5F5F5F5F5F5F5F5F5F5F5F5F5F5F5F5F5F5F5F5F5F5F5F5F5F5F5F5F5F5F5F5F5F5F5F5F5F5F5F5F5F5F5F5F5F5F5F5F5F5F5F5F5F5F5F5F5F5F5F5F5F5E2F5F5F5F5F5E2E2EFE2F5F5F5F5F5E2F5F5F5
310
F5F5F5F5F5F5F5F5E2F5F5E2F5F5F5F5F5F5F5F5F5F5F5F5F5E2F5E2E2F5E2E2F5E2F5F5F5F5F5F5F5F5F5F5F5F5F5E2F5F5E2F5F5F5F5F5F5F5F5F5F5F5F5F5F5F5F5F5F5F5F5F5F5F5F5F5F5F5F5F5F5F5F5F5F5F5F5F5F5F5E2F5F5F5F5F5F5F5F5F5F5F5F5F5F5F5F5F5F5F5F5F5F5F5F5F5F5F5F5F5F5F5F5F5F5F5F5
310
F5F5F5F5F5F5F5F5F5F5F5F5F5F5F5F5F5F5F5F5F5F5F5F5F5F5F5F5F5F5F5F5F5F5F5F5F5F5F5F5F5F5F5F5F5F5F5F5F5F5F5F5F5F5F5F5F5F5F5F5F5F5F5F5F5F5F5F5F5F5F5F5F5F5F5F5F5F5F5F5F5F5F5F5F5F5F5F5F5F5F5F5F5F5F5F5F5F5F5F5F5F5F5F5F5F5F5F5F5F5E2F5F5F5F5F5E2E2EFE2F5F5F5F5F5E2F5
310
F5F5F5F5F5F5F5F5F5F5E2F5F5E2F5F5F5F5F5F5F5F5F5F5F5F5F5E2E2F5E2E2E2F5E2E2F5F5F5F5F5F5F5F5F5F5F5F5F5E2F5F5E2F5F5F5F5F5F5F5F5F5F5F5F5F5F5F5F5F5F5F5F5F5F5F5F5F5F5F5F5F5F5F5F5F5F5F5F5F5F5F5E2F5F5F5F5F5F5F5F5F5F5F5F5F5F5F5F5F5F5F5F5F5F5F5F5F5F5F5F5F5F5F5F5F5F5
310
F5F5F5F5F5F5F5F5F5F5F5F5F5F5F5F5F5F5F5F5F5F5F5F5F5F5F5F5F5F5F5F5F5F5F5F5F5F5F5F5F5F5F5F5F5F5F5F5F5F5F5F5F5F5F5F5F5F5F5F5F5F5F5F5F5F5F5F5F5F5F5F5F5F5F5F5F5F5F5F5F5F5F5F5F5F5F5F5F5F5F5F5F5F5F5F5F5F5F5F5F5F5F5F5F5F5F5F5F5F5F5F5E2F5F5F5F5F5E2E2EFE2F5F5F5F5F5
310
E2F5F5F5F5F5F5F5F5F5F5F5E2F5F5E2F5F5F5F5F5F5F5F5F5F5F5F5E2F5E2F5E2F5F5E2E2F5E2F5F5F5F5F5F5F5F5F5F5F5F5E2F5F5E2F5F5F5F5F5F5F5F5F5F5F5F5F5F5F5F5F5F5F5F5F5F5F5F5F5F5F5F5F5F5F5F5F5F5F5F5F5F5F5E2F5F5F5F5F5F5F5F5F5F5F5F5F5F5F5F5F5F5F5F5F5F5F5F5F5F5F5F5F5F5F5F5
310
F5F5F5F5F5F5F5F5F5F5F5F5F5F5F5F5F5F5F5F5F5F5F5F5F5F5F5F5F5F5F5F5F5F5F5F5F5F5F5F5F5F5F5F5F5F5F5F5F5F5F5F5F5F5F5F5F5F5F5F5F5F5F5F5F5F5F5F5F5F5F5F5F5F5F5F5F5F5F5F5F5F5F5F5F5F5F5F5F5F5F5F5F5F5F5F5F5F5F5F5F5F5F5F5F5F5F5F5F5F5F5F5F5F5E2F5F5F5F5F5E2E2EFE2F5F5F5
310
F5F5E2F5F5F5F5F5F5F5F5F5F5F5E2F5F5E2F5F5F5F5F5F5F5F5F5F5F5F5E2E2F5E2F5F5F5E2E2E2E2E2E2E2E2E2E2E2E2E2E2E2E2E2E2E2E2E2E2E2E2E2E2E2E2E2E2E2E2E2E2E2E2E2E2E2E2E2E2E2E2F5F5F5F5F5F5F5F5F5F5F5F5F5F5F5E2F5F5F5F5F5F5F5F5F5F5F5F5F5F5F5F5F5F5F5F5F5F5F5F5F5F5F5F5F5F5
310
F5F5F5F5F5F5F5F5F5F5F5F5F5F5F5F5F5F5F5F5F5F5F5F5F5F5F5F5F5F5F5F5F5F5F5F5F5F5F5F5F5F5F5F5F5F5F5F5F5F5F5F5F5F5F5F5F5F5F5F5F5F5F5F5F5F5F5F5F5F5F5F5F5F5F5F5F5F5F5F5F5F5F5F5F5F5F5F5F5F5F5F5F5F5F5F5F5F5F5F5F5F5F5F5F5F5F5F5F5F5F5F5F5F5F5F5E2F5F5F5F5F5E2E2EFE2F5
310
F5F5F5F5E2F5F5F5F5F5F5F5F5F5F5F5E2F5F5E2F5F5F5F5F5F5F5F5F5F5F5F5E2F5E2F5E2E2E2F5E2F5E2F5F5F5F5F5F5F5F5F5F5F5F5E2F5F5E2F5F5F5F5F5F5F5F5F5F5F5F5F5F5F5F5F5F5F5F5F5F5E2F5F5F5F5F5F5F5F5F5F5F5F5F5F5F5F5E2F5F5F5F5F5F5F5F5F5F5F5F5F5F5F5F5F5F5F5F5F5F5F5F5F5F5F5F5
310
F5F5F5F5F5F5F5F5F5F5F5F5F5F5F5F5F5F5F5F5F5F5F5F5F5F5F5F5F5F5F5F5F5F5F5F5F5F5F5F5F5F5F5F5F5F5F5F5F5F5F5F5F5F5F5F5F5F5F5F5F5F5F5F5F5F5F5F5F5F5F5F5F5F5F5F5F5F5F5F5F5F5F5F5F5F5F5F5F5F5F5F5F5F5F5F5F5F5F5F5F5F5F5F5F5F5F5F5F5F5F5F5F5F5F5F5F5F5E2F5F5F5F5F5E2E2EF
310
E2F5F5F5F5F5E2F5F5F5F5F5F5F5F5F5F5F5E2F5F5E2F5F5F5F5F5F5F5F5F5F5F5F5E2F5E2F5F5F5F5F5E2F5E2F5F5F5F5F5F5F5F5F5F5F5F5E2F5F5E2F5F5F5F5F5F5F5F5F5F5F5F5F5F5F5F5F5F5F5F5F5E2E2F5F5F5F5F5F5F5F5F5F5F5F5F5F5F5F5E2F5F5F5F5F5F5F5F5F5F5F5F5F5F5F5F5F5F5F5F5F5F5F5F5F5F5
310
F5F5F5F5F5F5F5F5F5F5F5F5F5F5F5F5F5F5F5F5F5F5F5F5F5F5F5F5F5F5F5F5F5F5F5F5F5F5F5F5F5F5F5F5F5F5F5F5F5F5F5F5F5F5F5F5F5F5F5F5F5F5F5F5F5F5F5F5F5F5F5F5F5F5F5F5F5F5F5F5F5F5F5F5F5F5F5F5F5F5F5F5F5F5F5F5F5F5F5F5F5F5F5F5F5F5F5F5F5F5F5F5F5F5F5F5F5F5F5F5E2F5F5F5F5F5E2
310
E2EFE2F5F5F5F5F5E2F5F5F5F5F5F5F5F5F5F5F5E2F5F5E2F5F5F5F5F5F5F5F5F5F5F5F5E2F5F5E2E2E2E2E2F5F5E2F5F5F5F5F5F5F5F5F5F5F5F5E2F5F5E2F5F5F5F5F5F5F5F5F5F5F5F5F5F5F5F5F5F5F5F5F5E2E2F5F5F5F5F5F5F5F5F5F5F5F5F5F5F5F5E2F5F5F5F5F5F5F5F5F5F5F5F5F5F5F5F5F5F5F5F5F5F5F5F5
310
F5F5F5F5F5F5F5F5F5F5F5F5F5F5F5F5F5F5F5F5F5F5F5F5F5F5F5F5F5F5F5F5F5F5F5F5F5F5F5F5F5F5F5F5F5F5F5F5F5F5F5F5F5F5F5F5F5F5F5F5F5F5F5F5F5F5F5F5F5F5F5F5F5F5F5F5F5F5F5F5F5F5F5F5F5F5F5F5F5F5F5F5F5F5F5F5F5F5F5F5F5F5F5F5F5F5F5F5F5F5F5F5F5F5F5F5F5F5F5F5F5F5E2F5F5F5F5
310
F5E2E2EFE2F5F5F5F5F5E2F5F5F5F5F5F5F5F5F5F5F5E2F5F5E2F5F5F5F5F5F5F5F5F5F5F5F5E2F5F5F5F5E2E2F5F5F5E2F5F5F5F5F5F5F5F5F5F5F5F5E2F5F5E2F5F5F5F5F5F5F5F5F5F5F5F5F5F5F5F5F5F5F5F5F5F5E2F5F5F5F5F5F5F5F5F5F5F5F5F5F5F5F5F5F5F5F5F5F5F5F5F5F5F5F5F5F5F5F5F5F5F5F5F5F5F5
310
F5F5F5F5F5F5F5F5F5F5F5F5F5F5F5F5F5F5F5F5F5F5F5F5F5F5F5F5F5F5F5F5F5F5F5F5F5F5F5F5F5F5F5F5F5F5F5F5F5F5F5F5F5F5F5F5F5F5F5F5F5F5F5F5F5F5F5F5F5F5F5F5F5F5F5F5F5F5F5F5F5F5F5F5F5F5F5F5F5F5F5F5F5F5F5F5F5F5F5F5F5F5F5F5F5F5F5F5F5F5F5F5F5F5F5F5F5F5F5F5F5F5F5F5E2F5F5
310
F5F5F5E2E2EFE2F5F5F5F5F5E2F5F5F5F5F5F5F5F5F5F5F5E2F5F5E2F5F5F5F5F5F5F5F5F5F5F5F5E2F5F5F5F5F5E2F5F5F5E2F5F5F5F5F5F5F5F5F5F5F5F5E2F5F5E2F5F5F5F5F5F5F5F5F5F5F5F5F5F5F5F5F5F5F5F5F5F5E2F5F5F5F5F5F5F5F5F5F5F5F5F5F5F5F5F5F5F5F5F5F5F5F5F5F5F5F5F5F5F5F5F5F5F5F5F5
310
F5F5F5F5F5F5F5F5F5F5F5F5F5F5F5F5F5F5F5F5F5F5F5F5F5F5F5F5F5F5F5F5F5F5F5F5F5F5F5F5F5F5F5F5F5F5F5F5F5F5F5F5F5F5F5F5F5F5F5F5F5F5F5F5F5F5F5F5F5F5F5F5F5F5F5F5F5F5F5F5F5F5F5F5F5F5F5F5F5F5F5F5F5F5F5F5F5F5F5F5F5F5F5F5F5F5F5F5F5F5F5F5F5F5F5F5F5F5F5F5F5F5F5F5F5F5E2
310
F5F5F5F5F5E2E2EFE2F5F5F5F5F5E2F5F5F5F5F5F5F5F5F5F5F5E2F5F5E2F5F5F5F5F5F5F5F5F5F5F5F5E2F5F5F5F5F5E2E2F5F5E2F5F5F5F5F5F5F5F5F5F5F5F5E2F5F5E2F5F5F5F5F5F5F5F5F5F5F5F5F5F5F5F5F5F5F5F5F5F5F5F5F5F5F5F5F5F5F5F5F5F5F5F5E2E2E2E2E2E2E2E2F5F5F5F5F5F5F5F5F5F5F5F5F5F5
310
F5F5F5F5F5F5F5F5F5F5F5F5F5F5F5F5F5F5F5F5F5F5F5F5F5F5F5F5F5F5F5F5F5F5F5F5F5F5F5F5F5F5F5F5F5F5F5F5F5F5F5F5F5F5F5F5F5F5F5F5F5F5F5F5F5F5F5F5F5F5F5F5F5F5F5F5F5F5F5F5F5F5F5F5F5F5F5F5F5F5F5F5F5F5F5F5F5F5F5F5F5F5F5F5F5F5F5F5F5F5F5F5F5F5F5F5F5F5F5F5F5F5F5F5F5F5F5
310
F5E2F5F5F5F5F5E2E2EFE2F5F5F5F5F5E2F5F5F5F5F5F5F5F5F5F5F5E2F5F5E2F5F5F5F5F5F5F5F5F5F5F5F5E2F5F5F5F5F5E2F5F5F5E2F5F5F5F5F5F5F5F5F5F5F5F5E2F5F5E2F5F5F5F5F5F5F5F5F5F5F5F5F5F5F5F5F5F5F5F5F5F5F5F5F5F5F5F5F5F5F5F5F5F5F5F5E2E2F5E2F5E2E2E2F5F5F5F5F5F5F5F5F5F5F5F5
310
F5F5F5F5F5F5F5F5F5F5F5F5F5F5F5F5F5F5F5F5F5F5F5F5F5F5F5F5F5F5F5F5F5F5F5F5F5F5F5F5F5F5F5F5F5F5F5F5F5F5F5F5F5F5F5F5F5F5F5F5F5F5F5F5F5F5F5F5F5F5F5F5F5F5F5F5F5F5F5F5F5F5F5F5F5F5F5F5F5F5F5F5F5F5F5F5F5F5F5F5F5F5F5F5F5F5F5F5F5F5F5F5F5F5F5F5F5F5F5F5F5F5F5F5F5F5F5
310
F5F5F5E2F5F5F5F5F5E2E2EFE2F5F5F5F5F5E2F5F5F5F5F5F5F5F5F5F5F5E2F5F5E2F5F5F5F5F5F5F5F5F5F5F5F5E2F5F5F5F5F5F5E2F5F5E2F5F5F5F5F5F5F5F5F5F5F5F5E2F5F5E2F5F5F5F5F5F5F5F5F5F5F5F5F5F5F5F5F5F5F5F5F5F5F5F5F5F5F5F5F5F5F5F5F5F5F5F5F5E2F5E2E2E2E2E2F5F5F5F5F5F5F5F5F5F5
310
F5F5F5F5F5F5F5F5F5F5F5F5F5F5F5F5F5F5F5F5F5F5F5F5F5F5F5F5F5F5F5F5F5F5F5F5F5F5F5F5F5F5F5F5F5F5F5F5F5F5F5F5F5F5F5F5F5F5F5F5F5F5F5F5F5F5F5F5F5F5F5F5F5F5F5F5F5F5F5F5F5F5F5F5F5F5F5F5F5F5F5F5F5F5F5F5F5F5F5F5F5F5F5F5F5F5F5F5F5F5F5F5F5F5F5F5F5F5F5F5F5F5F5F5F5F5F5
310
F5F5F5F5F5E2F5F5F5F5F5E2E2EFE2F5F5F5F5F5E2F5F5F5F5F5F5F5F5F5F5F5E2E2E2E2E2E2E2E2E2E2E2E2E2E2E2E2E2F5F5F5F5F5F5E2F5F5E2E2E2E2E2E2E2E2E2E2E2E2E2E2E2E2E2F5F5F5F5F5F5F5F5F5F5F5F5F5F5F5F5F5F5F5F5F5F5F5F5F5F5F5F5F5F5F5F5F5F5F5F5E2E2F5F5E2F5E2F5F5F5F5F5F5F5F5F5
310
F5F5F5F5F5F5F5F5F5F5F5F5F5F5F5F5F5F5F5F5F5F5F5F5F5F5F5F5F5F5F5F5F5F5F5F5F5F5F5F5F5F5F5F5F5F5F5F5F5F5F5F5F5F5F5F5F5F5F5F5F5F5F5F5F5F5F5F5F5F5F5F5F5F5F5F5F5F5F5F5F5F5F5F5F5F5F5F5F5F5F5F5F5F5F5F5F5F5F5F5F5F5F5F5F5F5F5F5F5F5F5F5F5F5F5F5F5F5F5F5F5F5F5F5F5F5F5
310
F5F5F5F5F5F5F5E2F5F5F5F5F5E2E2EFE2F5F5F5F5F5E2F5F5F5F5F5F5F5F5F5F5F5E2F5F5F5F5F5F5F5F5F5F5F5F5F5F5F5F5F5F5F5F5F5F5F5E2F5F5F5F5F5F5F5F5F5F5F5F5F5F5F5F5F5E2F5F5F5F5F5F5F5F5F5F5F5F5F5F5F5F5F5F5F5F5F5F5F5F5F5F5F5F5F5F5F5F5F5F5F5F5F5F5F5E2F5F5F5F5F5F5F5F5F5F5
310
F5F5F5F5F5F5F5F5F5F5F5F5F5F5F5F5F5F5F5F5F5F5F5F5F5F5F5F5F5F5F5F5F5F5F5F5F5F5F5F5F5F5F5F5F5F5F5F5F5F5F5F5F5F5F5F5F5F5F5F5F5F5F5F5F5F5F5F5F5F5F5F5F5F5F5F5F5F5F5F5F5F5F5F5F5F5F5F5F5F5F5F5F5F5F5F5F5F5F5F5F5F5F5F5F5F5F5F5F5F5F5F5F5F5F5F5F5F5F5F5F5F5F5F5F5F5F5
310
F5F5F5F5F5F5F5F5F5E2F5F5F5F5F5E2E2EFE2F5F5F5F5F5E2F5F5F5F5F5F5F5F5F5F5F5E2F5F5F5F5F5F5F5F5F5F5F5F5F5F5F5F5F5F5F5F5F5F5F5E2F5F5F5F5F5F5F5F5F5F5F5F5F5F5F5F5F5E2F5F5F5F5F5F5F5F5F5F5F5F5F5F5F5F5F5F5F5F5F5F5F5F5F5F5F5F5F5F5F5F5F5F5F5F5F5F5F5E2F5F5F5F5F5F5F5F5
310
F5F5F5F5F5F5F5F5F5F5F5F5F5F5F5F5F5F5F5F5F5F5F5F5F5F5F5F5F5F5F5F5F5F5F5F5F5F5F5F5F5F5F5F5F5F5F5F5F5F5F5F5F5F5F5F5F5F5F5F5F5F5F5F5F5F5F5F5F5F5F5F5F5F5F5F5F5F5F5F5F5F5F5F5F5F5F5F5F5F5F5F5F5F5F5F5F5F5F5F5F5F5F5F5F5F5F5F5F5F5F5F5F5F5F5F5F5F5F5F5F5F5F5F5F5F5F5
310
F5F5F5F5F5F5F5F5F5F5F5E2F5F5F5F5F5E2E2EFE2F5F5F5F5F5E2F5F5F5F5F5F5F5F5F5F5F5E2F5F5F5F5F5F5F5F5F5F5F5F5F5F5F5F5F5F5F5F5F5F5F5F5E2F5F5F5F5F5F5F5F5F5F5F5F5F5F5F5F5E2F5F5F5F5F5F5F5F5F5F5F5F5F5F5F5F5F5F5F5F5F5F5F5F5F5F5F5F5F5F5F5F5F5F5F5F5F5F5F5E2F5F5F5F5F5F5
310
F5F5F5F5F5F5F5F5F5F5F5F5F5F5F5F5F5F5F5F5F5F5F5F5F5F5F5F5F5F5F5F5F5F5F5F5F5F5F5F5F5F5F5F5F5F5F5F5F5F5F5F5F5F5F5F5F5F5F5F5F5F5F5F5F5F5F5F5F5F5F5F5F5F5F5F5F5F5F5F5F5F5F5F5F5F5F5F5F5F5F5F5F5F5F5F5F5F5F5F5F5F5F5F5F5F5F5F5F5F5F5F5F5F5F5F5F5F5F5F5F5F5F5F5F5F5F5
310
F5F5F5F5F5F5F5F5F5F5F5F5F5E2F5F5F5F5F5E2E2EFE2F5F5F5F5F5E2F5F5F5F5F5F5F5F5F5F5F5E2E2E2E2E2E2E2E2E2E2E2E2E2E2E2E2E2E2E2E2E2E2E2E2E2E2E2E2E2E2E2E2E2E2E2E2E2E2E2E2E2E2E2F5F5F5F5F5F5F5F5F5F5F5F5F5F5F5F5F5F5F5F5F5F5F5F5F5F5F5F5F5F5F5F5F5F5F5F5F5F5F5E2F5F5F5F5
310
F5F5F5F5F5F5F5F5F5F5F5F5F5F5F5F5F5F5F5F5F5F5F5F5F5F5F5F5F5F5F5F5F5F5F5F5F5F5F5F5F5F5F5F5F5F5F5F5F5F5F5F5F5F5F5F5F5F5F5F5F5F5F5F5F5F5F5F5F5F5F5F5F5F5F5F5F5F5F5F5F5F5F5F5F5F5F5F5F5F5F5F5F5F5F5F5F5F5F5F5F5F5F5F5F5F5F5F5F5F5F5F5F5F5F5F5F5F5F5F5F5F5F5F5F5F5F5
310
F5F5F5F5F5F5F5F5F5F5F5F5F5F5F5E2F5F5F5F5F5E2E2EFE2F5F5F5F5F5E2F5F5F5F5F5F5F5F5F5F5F5F5F5E2F5F5F5F5F5F5F5F5F5F5F5F5F5F5F5F5F5F5F5F5F5F5E2F5F5F5F5F5F5F5F5F5F5F5F5F5F5E2F5F5F5F5F5F5F5F5F5F5F5F5F5F5F5F5F5F5F5F5F5F5F5F5F5F5F5F5F5F5F5F5F5F5F5F5F5F5F5F5F5E2F5F5
310
F5F5F5F5F5F5F5F5F5F5F5F5F5F5F5F5F5F5F5F5F5F5F5F5F5F5F5F5F5F5F5F5F5F5F5F5F5F5F5F5F5F5F5F5F5F5F5F5F5F5F5F5F5F5F5F5F5F5F5F5F5F5F5F5F5F5F5F5F5F5F5F5F5F5F5F5F5F5F5F5F5F5F5F5F5F5F5F5F5F5F5F5F5F5F5F5F5F5F5F5F5F5F5F5F5F5F5F5F5F5F5F5F5F5F5F5F5F5F5F5F5F5F5F5F5F5F5
310
F5F5F5F5F5F5F5F5F5F5F5F5F5F5F5F5F5E2F5F5F5F5F5E2E2EFE2F5F5F5F5F5E2F5F5F5F5F5F5F5F5F5F5F5F5F5E2F5F5F5F5F5F5F5F5F5F5F5F5F5F5F5F5F5F5F5F5F5F5F5E2F5F5F5F5F5F5F5F5F5F5F5F5F5E2F5F5F5F5F5F5F5F5F5F5F5F5F5F5F5F5F5F5F5F5F5F5F5F5F5F5F5F5F5F5F5F5F5F5F5F5F5F5F5F5F5E2
310
F5F5F5F5F5F5F5F5F5F5F5F5F5F5F5F5F5F5F5F5F5F5F5F5F5F5F5F5F5F5F5F5F5F5F5F5F5F5F5F5F5F5F5F5F5F5F5F5F5F5F5F5F5F5F5F5F5F5F5F5F5F5F5F5F5F5F5F5F5F5F5F5F5F5F5F5F5F5F5F5F5F5F5F5F5F5F5F5F5F5F5F5F5F5F5F5F5F5F5F5F5F5F5F5F5F5F5F5F5F5F5F5F5F5F5F5F5F5F5F5F5F5F5F5F5F5F5
310
F5F5F5F5F5F5F5F5F5F5F5F5F5F5F5F5F5F5F5E2F5F5F5F5F5E2E2EFE2F5F5F5F5F5E2F5F5F5F5F5F5F5F5F5F5F5F5F5E2F5F5F5F5F5F5F5F5F5F5F5F5F5F5F5F5F5F5F5F5F5F5F5E2F5F5F5F5F5F5F5F5F5F5F5F5F5E2F5F5F5F5F5F5F5F5F5F5F5F5F5F5F5F5F5F5F5F5F5F5F5F5F5F5F5F5F5F5F5F5F5F5F5F5F5F5F5F5
310
F5E2F5F5F5F5F5F5F5F5F5F5F5F5F5F5F5F5F5F5F5F5F5F5F5F5F5F5F5F5F5F5F5F5F5F5F5F5F5F5F5F5F5F5F5F5F5F5F5F5F5F5F5F5F5F5F5F5F5F5F5F5F5F5F5F5F5F5F5F5F5F5F5F5F5F5F5F5F5F5F5F5F5F5F5F5F5F5F5F5F5F5F5F5F5F5F5F5F5F5F5F5F5F5F5F5F5F5F5F5F5F5F5F5F5F5F5F5F5F5F5F5F5F5F5F5F5
310
F5F5F5F5F5F5F5F5F5F5F5F5F5F5F5F5F5F5F5F5F5E2F5F5F5F5F5E2E2EFE2F5F5F5F5F5E2F5F5F5F5F5F5F5F5F5F5F5F5F5E2F5F5F5F5F5F5F5F5F5F5F5F5F5F5F5F5F5F5F5F5F5F5F5F5E2F5F5F5F5F5F5F5F5F5F5F5F5E2F5F5F5F5F5F5F5F5F5F5F5F5F5F5F5F5F5F5F5F5F5F5F5F5F5F5F5F5F5F5F5F5F5F5F5F5F5F5
310
F5F5F5E2F5F5F5F5F5F5F5F5F5F5F5F5F5F5F5F5F5F5F5F5F5F5F5F5F5F5F5F5F5F5F5F5F5F5F5F5F5F5F5F5F5F5F5F5F5F5F5F5F5F5F5F5F5F5F5F5F5F5F5F5F5F5F5F5F5F5F5F5F5F5F5F5F5F5F5F5F5F5F5F5F5F5F5F5F5F5F5F5F5F5F5F5F5F5F5F5F5F5F5F5F5F5F5F5F5F5F5F5F5F5F5F5F5F5F5F5F5F5F5F5F5F5F5
310
F5F5F5F5F5F5F5F5F5F5F5F5F5F5F5F5F5F5F5F5F5F5F5E2F5F5F5F5F5E2E2EFE2F5F5F5F5F5E2F5F5F5F5F5F5F5F5F5F5F5F5F5E2F5F5F5F5F5F5F5F5F5F5F5F5F5F5F5F5F5F5F5F5F5F5F5F5E2F5F5F5F5F5F5F5F5F5F5F5F5E2F5F5F5F5F5F5F5F5F5F5F5F5F5F5F5F5F5F5F5F5F5F5F5F5F5F5F5F5F5F5F5F5F5F5F5F5
310
F5F5F5F5F5E2F5F5F5F5F5F5F5F5F5F5F5F5F5F5F5F5F5F5F5F5F5F5F5F5F5F5F5F5F5F5F5F5F5F5F5F5F5F5F5F5F5F5F5F5F5F5F5F5F5F5F5F5F5F5F5F5F5F5F5F5F5F5F5F5F5F5F5F5F5F5F5F5F5F5F5F5F5F5F5F5F5F5F5F5F5F5F5F5F5F5F5F5F5F5F5F5F5F5F5F5F5F5F5F5F5F5F5F5F5F5F5F5F5F5F5F5F5F5F5F5F5
310
F5F5F5F5F5F5F5F5F5F5F5F5F5F5F5F5F5F5F5F5F5F5F5F5F5E2F5F5F5F5F5E2E2EFE2F5F5F5F5F5E2F5F5F5F5F5F5F5F5F5F5F5F5F5E2F5F5F5F5F5F5F5F5F5F5F5F5F5F5F5F5F5F5F5F5F5F5F5F5F5E2F5F5F5F5F5F5F5F5F5F5E2F5F5F5F5F5F5F5F5F5F5F5F5F5F5F5F5F5F5F5F5F5F5F5F5F5F5F5F5F5F5F5F5F5F5F5
310
F5F5F5F5F5F5F5E2F5F5F5F5F5F5F5F5F5F5F5F5F5F5F5F5F5F5F5F5F5F5F5F5F5F5F5F5F5F5F5F5F5F5F5F5F5F5F5F5F5F5F5F5F5F5F5F5F5F5F5F5F5F5F5F5F5F5F5F5F5F5F5F5F5F5F5F5F5F5F5F5F5F5F5F5F5F5F5F5F5F5F5F5F5F5F5F5F5F5F5F5F5F5F5F5F5F5F5F5F5F5F5F5F5F5F5F5F5F5F5F5F5F5F5F5F5F5F5
310
F5F5F5F5F5F5F5F5F5F5F5F5F5F5F5F5F5F5F5F5F5F5F5F5F5F5F5E2F5F5F5F5F5E2E2EFE2F5F5F5F5F5E2F5F5F5F5F5F5F5F5F5F5F5F5F5E2F5F5F5F5F5F5F5F5F5F5F5F5F5F5F5F5F5F5F5F5F5F5F5F5F5E2F5F5F5F5F5F5F5F5F5F5E2F5F5F5F5F5F5F5F5F5F5F5F5F5F5F5F5F5F5F5F5F5F5F5F5F5F5F5F5F5F5F5F5F5
310
F5F5F5F5F5F5F5F5F5E2F5F5F5F5F5F5F5F5F5F5F5F5F5F5F5F5F5F5F5F5F5F5F5F5F5F5F5F5F5F5F5F5F5F5F5F5F5F5F5F5F5F5F5F5F5F5F5F5F5F5F5F5F5F5F5F5F5F5F5F5F5F5F5F5F5F5F5F5F5F5F5F5F5F5F5F5F5F5F5F5F5F5F5F5F5F5F5F5F5F5F5F5F5F5F5F5F5F5F5F5F5F5F5F5F5F5F5F5F5F5F5F5F5F5F5F5F5
310
F5F5F5F5F5F5F5F5F5F5F5F5F5F5F5F5F5F5F5F5F5F5F5F5F5F5F5F5F5E2F5F5F5F5F5E2E2EFE2F5F5F5F5F5E2F5F5F5F5F5F5F5F5F5F5F5F5F5E2F5F5F5F5F5F5F5F5F5F5F5F5F5F5F5F5F5F5F5F5F5F5F5F5F5F5E2F5F5F5F5F5F5F5F5F5E2F5F5F5F5F5F5F5F5F5F5F5F5F5F5F5F5F5F5F5F5F5F5F5F5F5F5F5F5F5F5F5
310
F5F5F5F5F5F5F5F5F5F5E2E2F5F5F5F5F5F5F5F5F5F5F5F5F5F5F5F5F5F5F5F5F5F5F5F5F5F5F5F5F5F5F5F5F5F5F5F5F5F5F5F5F5F5F5F5F5F5F5F5F5F5F5F5F5F5F5F5F5F5F5F5F5F5F5F5F5F5F5F5F5F5F5F5F5F5F5F5F5F5F5F5F5F5F5F5F5F5F5F5F5F5F5F5F5F5F5F5F5F5F5F5F5F5F5F5F5F5F5F5F5F5F5F5F5F5F5
310
F5F5F5F5F5F5F5F5F5F5F5F5F5F5F5F5F5F5F5F5F5F5F5F5F5F5F5F5F5F5F5E2F5F5F5F5F5E2E2EFE2F5F5F5F5F5E2F5F5F5F5F5F5F5F5F5F5F5F5F5E2F5F5F5F5F5F5F5F5F5F5F5F5F5F5F5F5F5F5F5F5F5F5F5F5F5F5E2F5F5F5F5F5F5F5F5F5E2F5F5F5F5F5F5F5F5F5F5F5F5F5F5F5F5F5F5F5F5F5F5F5F5F5F5F5F5F5
310
F5F5F5F5F5F5F5F5F5F5F5F5E2E2F5F5F5F5F5F5F5F5F5F5F5F5F5F5F5F5F5F5F5F5F5F5F5F5F5F5F5F5F5F5F5F5F5F5F5F5F5F5F5F5F5F5F5F5F5F5F5F5F5F5F5F5F5F5F5F5F5F5F5F5F5F5F5F5F5F5F5F5F5F5F5F5F5F5F5F5F5F5F5F5F5F5F5F5F5F5F5F5F5F5F5F5F5F5F5F5F5F5F5F5F5F5F5F5F5F5F5F5F5F5F5F5F5
310
F5F5F5F5F5F5F5F5F5F5F5F5F5F5F5F5F5F5F5F5F5F5F5F5F5F5F5F5F5F5F5F5F5E2F5F5F5F5F5E2E2EFE2F5F5F5F5F5E2F5F5F5F5F5F5F5F5F5F5F5F5F5E2E2E2E2E2E2E2E2E2E2E2E2E2E2E2E2E2E2E2E2E2E2E2E2E2E2E2E2E2E2E2E2E2E2E2E2E2E2F5F5F5F5F5F5F5F5F5F5F5F5F5F5F5F5F5F5F5F5F5F5F5F5F5F5F5
310
F5F5F5F5F5F5F5F5F5F5F5F5F5F5F5E2F5F5F5F5F5F5F5F5F5F5F5F5F5F5F5F5F5F5F5F5F5F5F5F5F5F5F5F5F5F5F5F5F5F5F5F5F5F5F5F5F5F5F5F5F5F5F5F5F5F5F5F5F5F5F5F5F5F5F5F5F5F5F5F5F5F5F5F5F5F5F5F5F5F5F5F5F5F5F5F5F5F5F5F5F5F5F5F5F5F5F5F5F5F5F5F5F5F5F5F5F5F5F5F5F5F5F5F5F5F5F5
310
F5F5F5F5F5F5F5F5F5F5F5F5F5F5F5F5F5F5F5F5F5F5F5F5F5F5F5F5F5F5F5F5F5F5F5E2F5F5F5F5F5E2E2EFE2F5F5F5F5F5E2F5F5F5F5F5F5F5F5F5F5F5F5F5F5E2E2E2E2E2E2E2E2E2E2E2E2E2E2E2E2E2E2E2E2E2E2E2E2E2E2E2E2E2E2E2E2E2E2E2E2E2F5F5E2E2E2E2E2E2E2E2E2E2E2E2E2E2E2E2E2E2E2E2E2E2E2
310
E2E2E2E2E2E2E2E2E2E2E2E2E2E2E2E2E2E2E2F5F5F5F5F5F5F5F5F5F5F5F5F5F5F5F5F5F5F5F5F5F5F5F5F5F5F5F5F5F5F5F5F5F5F5F5F5F5F5F5F5F5F5F5F5F5F5F5F5F5F5F5F5F5F5F5F5F5F5F5F5F5F5F5F5F5F5F5F5F5F5F5F5F5F5F5F5F5F5F5F5F5F5F5F5F5F5F5F5F5F5F5F5F5F5F5F5F5F5F5F5F5F5F5F5F5F5F5
310
F5F5F5F5F5F5F5F5F5F5F5F5F5F5F5F5F5F5F5F5F5F5F5F5F5F5F5F5F5F5F5F5F5F5F5F5F5E2F5F5F5F5F5E2E2EFE2F5F5F5F5F5E2F5F5F5F5F5F5F5F5F5F5F5F5F5F5F5F5F5F5F5F5F5F5F5F5F5F5F5F5F5F5F5F5F5F5F5F5F5F5F5F5F5E2F5F5F5F5F5F5F5F5F5F5F5F5F5F5F5F5F5F5F5F5F5F5F5F5F5F5F5F5F5F5F5F5
310
F5F5F5F5F5F5F5F5F5F5F5F5F5F5F5F5F5F5F5F5F5F5F5F5F5F5F5F5F5F5F5F5F5F5F5F5F5F5F5F5F5F5F5F5F5F5F5F5F5F5F5F5F5F5F5F5F5F5F5F5F5F5F5F5F5F5F5F5F5F5F5F5F5F5F5F5F5F5F5F5F5F5F5F5F5F5F5F5F5F5F5F5F5F5F5F5F5F5F5F5F5F5F5F5F5F5F5F5F5F5F5F5F5F5F5F5F5F5F5F5F5F5F5F5F5F5F5
310
F5F5F5F5F5F5F5F5F5F5F5F5F5F5F5F5F5F5F5F5F5F5F5F5F5F5F5F5F5F5F5F5F5F5F5F5F5F5F5E2F5F5F5F5F5E2E2EFE2F5F5F5F5F5E2F5F5F5F5F5F5F5F5F5F5F5F5F5F5F5F5F5F5F5F5F5F5F5F5F5F5F5F5F5F5F5F5F5F5F5F5F5F5F5F5F5F5E2F5F5F5F5F5E2E2F5E2E2E2E2E2E2E2E2E2E2E2E2E2F5F5F5E2E2E2F5F5
310
E2E2E2E2E2E2F5E2E2E2F5F5F5F5F5F5F5F5F5F5F5F5F5F5F5F5F5F5F5F5F5F5F5F5F5F5F5F5F5F5F5F5F5F5F5F5F5F5F5F5F5F5F5F5F5F5F5F5F5F5F5F5F5F5F5F5F5F5F5F5F5F5F5F5F5F5F5F5F5F5F5F5F5F5F5F5F5F5F5F5F5F5F5F5F5F5F5F5F5F5F5F5F5F5F5F5F5F5F5F5F5F5F5F5F5F5F5F5F5F5F5F5F5F5F5F5F5
310
F5F5F5F5F5F5F5F5F5F5F5F5F5F5F5F5F5F5F5F5F5F5F5F5F5F5F5F5F5F5F5F5F5F5F5F5F5F5F5F5F5E2F5F5F5F5F5E2E2EFE2F5F5F5F5F5E2F5F5F5F5F5F5F5F5F5F5F5F5F5F5F5F5F5F5F5F5F5F5F5F5F5F5F5F5F5F5F5F5F5F5F5F5F5F5F5F5F5F5E2F5F5F5F5F5E2E2F5E2E2E2E2F5E2E2E2E2E2F5E2F5E2F5F5E2E2E2
310
F5F5E2F5E2E2E2E2E2E2E2E2F5F5F5F5F5F5F5F5F5F5F5F5F5F5F5F5F5F5F5F5F5F5F5F5F5F5F5F5F5F5F5F5F5F5F5F5F5F5F5F5F5F5F5F5F5F5F5F5F5F5F5F5F5F5F5F5F5F5F5F5F5F5F5F5F5F5F5F5F5F5F5F5F5F5F5F5F5F5F5F5F5F5F5F5F5F5F5F5F5F5F5F5F5F5F5F5F5F5F5F5F5F5F5F5F5F5F5F5F5F5F5F5F5F5F5
310
F5F5F5F5F5F5F5F5F5F5F5F5F5F5F5F5F5F5F5F5F5F5F5F5F5F5F5F5F5F5F5F5F5F5F5F5F5F5F5F5F5F5F5E2F5F5F5F5F5E2E2EFE2F5F5F5F5F5E2F5F5F5F5F5F5F5F5F5F5F5F5F5F5F5F5F5F5F5F5F5F5F5F5F5F5F5F5F5F5F5F5F5F5F5F5F5F5F5F5F5F5F5E2F5F5F5F5E2E2E2E2E2E2E2E2F5E2E2E2E2E2E2F5E2F5F5E2
310
E2E2E2E2E2E2E2E2E2E2E2E2E2E2F5F5F5F5F5F5F5F5F5F5F5F5F5F5F5F5F5F5F5F5F5F5F5F5F5F5F5F5F5F5F5F5F5F5F5F5F5F5F5F5F5F5F5F5F5F5F5F5F5F5F5F5F5F5F5F5F5F5F5F5F5F5F5F5F5F5F5F5F5F5F5F5F5F5F5F5F5F5F5F5F5F5F5F5F5F5F5F5F5F5F5F5F5F5F5F5F5F5F5F5F5F5F5F5F5F5F5F5F5F5F5F5F5
310
F5F5F5F5F5F5F5F5F5F5F5F5F5F5F5F5F5F5F5F5F5F5F5F5F5F5F5F5F5F5F5F5F5F5F5F5F5F5F5F5F5F5F5F5F5E2F5F5F5F5F5E2E2EFE2F5F5F5F5F5E2F5F5F5F5F5F5F5F5F5F5F5F5F5F5F5F5F5F5F5F5F5F5F5F5F5F5F5F5F5F5F5F5F5F5F5F5F5F5F5F5F5F5F5E2E2E2E2E2E2E2F5E2E2E2E2E2F5E2E2E2E2E2E2E2F5F5
310
F5E2E2E2E2E2E2E2E2E2E2E2F5E2E2E2F5F5F5F5F5F5F5F5F5F5F5F5F5F5F5F5F5F5F5F5F5F5F5F5F5F5F5F5F5F5F5F5F5F5F5F5F5F5F5F5F5F5F5F5F5F5F5F5F5F5F5F5F5F5F5F5F5F5F5F5F5F5F5F5F5F5F5F5F5F5F5F5F5F5F5F5F5F5F5F5F5F5F5F5F5F5F5F5F5F5F5F5F5F5F5F5F5F5F5F5F5F5F5F5F5F5F5F5F5F5F5
310
F5F5F5F5F5F5F5F5F5F5F5F5F5F5F5F5F5F5F5F5F5F5F5F5F5F5F5F5F5F5F5F5F5F5F5F5F5F5F5F5F5F5F5F5F5F5F5E2F5F5F5F5F5E2E2EFE2F5F5F5F5F5E2F5F5F5F5F5F5F5F5F5F5F5F5F5F5F5F5F5F5F5F5F5F5F5F5F5F5F5F5F5F5F5F5F5F5F5F5F5F5F5F5F5F5F5F5F5F5F5E2F5F5E2E2E2E2E2E2E2E2E2E2E2E2E2F5
310
F5F5E2E2F5F5E2E2F5F5F5F5E2F5E2F5F5E2F5E2E2F5F5E2F5F5F5F5F5F5F5F5F5F5F5F5F5F5F5F5F5F5F5F5F5F5F5F5F5F5F5F5F5F5F5F5F5F5F5F5F5F5F5F5F5F5F5F5F5F5F5F5F5F5F5F5F5F5F5F5F5F5F5F5F5F5F5F5F5F5F5F5F5F5F5F5F5F5F5F5F5F5F5F5F5F5F5F5F5F5F5F5F5F5F5F5F5F5F5F5F5F5F5F5F5F5F5
310
F5F5F5F5F5F5F5F5F5F5F5F5F5F5F5F5F5F5F5F5F5F5F5F5F5F5F5F5F5F5F5F5F5F5F5F5F5F5F5F5F5F5F5F5F5F5F5F5F5E2F5F5F5F5F5E2E2EFE2F5F5F5F5F5E2F5F5F5F5F5F5F5F5F5F5F5F5F5F5F5F5F5F5F5F5F5F5F5F5F5F5F5F5F5F5F5F5F5F5F5F5F5F5F5F5F5F5F5F5F5F5F5E2F5F5E2E2E2E2E2E2E2E2E2F5F5E2
310
E2F5F5F5E2F5E2F5F5E2E2E2E2F5E2E2E2E2F5E2E2E2E2F5F5E2F5F5F5F5F5F5F5F5F5F5F5F5F5F5F5F5F5F5F5F5F5F5F5F5F5F5F5F5F5F5F5F5F5F5F5F5F5F5F5F5F5F5F5F5F5F5F5F5F5F5F5F5F5F5F5F5F5F5F5F5F5F5F5F5F5F5F5F5F5F5F5F5F5F5F5F5F5F5F5F5F5F5F5F5F5F5F5F5F5F5F5F5F5F5F5F5F5F5F5F5F5
310
F5F5F5F5F5F5F5F5F5F5F5F5F5F5F5F5F5F5F5F5F5F5F5F5F5F5F5F5F5F5F5F5F5F5F5F5F5F5F5F5F5F5F5F5F5F5F5F5F5F5F5E2F5F5F5F5F5E2E2EFE2F5F5F5F5F5E2F5F5F5F5F5F5F5F5F5F5F5F5F5F5F5F5F5F5F5F5F5F5F5F5F5F5F5F5F5F5F5F5F5F5F5F5F5F5F5F5F5F5F5F5F5F5F5E2E2E2E2E2F5E2E2E2E2F5E2E2
310
F5E2E2F5F5E2E2F5E2F5E2E2F5F5F5E2E2F5E2F5F5E2E2E2E2E2F5E2F5F5F5F5F5F5F5F5F5F5F5F5F5F5F5F5F5F5F5F5F5F5F5F5F5F5F5F5F5F5F5F5F5F5F5F5F5F5F5F5F5F5F5F5F5F5F5F5F5F5F5F5F5F5F5F5F5F5F5F5F5F5F5F5F5F5F5F5F5F5F5F5F5F5F5F5F5F5F5F5F5F5F5F5F5F5F5F5F5F5F5F5F5F5F5F5F5F5F5
310
F5F5F5F5F5F5F5F5F5F5F5F5F5F5F5F5F5F5F5F5F5F5F5F5F5F5F5F5F5F5F5F5F5F5F5F5F5F5F5F5F5F5F5F5F5F5F5F5F5F5F5F5F5E2F5F5F5F5F5E2E2EFE2F5F5F5F5F5E2F5F5F5F5F5F5F5F5F5F5F5F5F5F5F5F5F5F5F5F5F5F5F5F5F5F5F5F5F5F5F5F5F5F5F5F5F5F5F5F5F5F5F5F5F5F5F5E2E2E2E2E2F5E2E2E2E2E2
310
E2E2E2E2E2F5F5F5E2F5F5E2E2E2F5F5F5F5E2F5E2F5F5E2F5E2E2E2E2E2F5F5F5F5F5F5F5F5F5F5F5F5F5F5F5F5F5F5F5F5F5F5F5F5F5F5F5F5F5F5F5F5F5F5F5F5F5F5F5F5F5F5F5F5F5F5F5F5F5F5F5F5F5F5F5F5F5F5F5F5F5F5F5F5F5F5F5F5F5F5F5F5F5F5F5F5F5F5F5F5F5F5F5F5F5F5F5F5F5F5F5F5F5F5F5F5F5
310
F5F5F5F5F5F5F5F5F5F5F5F5F5F5F5F5F5F5F5F5F5F5F5F5F5F5F5F5F5F5F5F5F5F5F5F5F5F5F5F5F5F5F5F5F5F5F5F5F5F5F5F5F5F5F5E2F5F5F5F5F5E2E2EFE2F5F5F5F5F5E2F5F5F5F5F5F5F5F5F5F5F5F5F5F5F5F5F5F5F5F5F5F5F5F5F5F5F5F5F5F5F5F5F5F5F5F5F5F5F5F5F5F5F5F5F5F5F5F5F5F5F5F5F5F5F5F5
310
F5F5F5F5F5F5F5F5F5F5F5F5F5F5F5F5F5F5F5F5F5F5F5F5F5F5F5F5F5F5F5F5F5F5F5F5F5F5F5F5F5F5F5F5F5F5F5F5F5F5F5F5F5F5F5F5F5F5F5F5F5F5F5F5F5F5F5F5F5F5F5F5F5F5F5F5F5F5F5F5F5F5F5F5F5F5F5F5F5F5F5F5F5F5F5F5F5F5F5F5F5F5F5F5F5F5F5F5F5F5F5F5F5F5F5F5F5F5F5F5F5F5F5F5F5F5F5
310
F5F5F5F5F5F5F5F5F5F5F5F5E2F5F5F5E2F5F5F5F5F5F5E2E2E2E2E2F5F5E2E2E2E2E2E2E2F5F5F5F5F5F5F5F5F5F5F5F5F5F5F5F5F5F5F5F5E2F5F5F5F5F5E2E2EFE2F5F5F5F5F5E2F5F5F5F5F5F5F5F5F5F5F5F5F5F5F5F5F5F5F5F5F5F5F5F5F5F5F5F5F5F5F5F5F5F5F5F5F5F5F5F5F5F5F5F5F5F5F5F5F5F5F5F5F5F5
310
F5F5F5F5F5F5F5F5F5F5F5F5F5F5F5F5F5F5F5F5F5F5F5F5F5F5F5F5F5F5F5F5F5F5F5F5F5F5F5F5F5F5F5F5F5F5F5F5F5F5F5F5F5F5F5F5F5F5F5F5F5F5F5F5F5F5F5F5F5E2E2E2E2F5E2E2E2F5E2E2E2E2E2E2E2E2F5F5E2E2E2F5E2E2E2F5E2E2E2E2E2E2E2E2E2F5F5F5F5F5F5F5F5F5F5F5F5F5F5F5F5F5F5F5F5F5F5
310
F5F5F5F5F5F5F5F5E2E2E2E2E2E2E2F5F5F5E2E2E2E2E2E2E2F5E2E2F5E2F5F5E2F5E2F5E2E2E2F5F5F5F5F5F5F5F5F5F5F5F5F5F5F5F5F5F5F5F5E2F5F5F5F5F5E2E2EFE2F5F5F5F5F5E2F5F5F5F5F5F5F5F5F5F5F5F5F5F5F5F5F5F5F5F5F5F5F5F5F5F5F5F5F5F5F5F5F5F5F5F5F5F5F5F5F5F5F5F5F5F5F5F5F5F5F5F5
310
F5F5F5F5F5F5F5F5F5F5F5F5F5F5F5F5F5F5F5F5F5F5F5F5F5F5F5F5F5F5F5F5F5F5F5F5F5F5F5F5F5F5F5F5F5F5F5F5F5F5F5F5F5F5F5F5F5F5F5F5F5F5F5F5F5F5F5F5F5F5F5E2E2E2E2E2E2E2E2E2E2E2E2E2E2E2F5E2F5F5E2E2E2E2E2E2E2E2E2E2E2E2E2E2E2E2E2F5F5F5F5F5F5F5F5F5F5F5F5F5F5F5F5F5F5F5F5
310
F5F5F5F5F5F5F5F5F5F5F5F5F5E2E2F5E2F5F5F5E2F5E2E2F5F5F5F5E2E2E2E2F5F5E2E2E2F5E2E2E2F5F5F5F5F5F5F5F5F5F5F5F5F5F5F5F5F5F5F5F5E2F5F5F5F5F5E2E2EFE2F5F5F5F5F5E2F5F5F5F5F5F5F5F5F5F5F5F5F5F5F5F5F5F5F5F5F5F5F5F5F5F5F5F5F5F5F5F5F5F5F5F5F5F5F5F5F5F5F5F5F5F5F5F5F5F5
310
F5F5F5F5F5F5F5F5F5F5F5F5F5F5F5F5F5F5F5F5F5F5F5F5F5F5F5F5F5F5F5F5F5F5F5F5F5F5F5F5F5F5F5F5F5F5F5F5F5F5F5F5F5F5F5F5F5F5F5F5F5F5F5F5F5F5F5F5F5F5F5F5E2E2E2E2E2E2E2E2E2E2F5E2E2E2E2E2E2E2F5F5E2E2E2E2E2E2E2F5E2E2E2E2E2E2E2E2E2F5F5F5F5F5F5F5F5F5F5F5F5F5F5F5F5F5F5
310
F5F5F5F5F5F5F5F5F5F5F5F5F5F5F5F5F5F5E2F5F5F5E2F5F5F5F5F5F5F5F5F5F5F5F5F5F5F5F5F5F5F5F5F5F5F5F5F5F5F5F5F5F5F5F5F5F5F5F5F5F5F5F5E2F5F5F5F5F5E2E2EFE2F5F5F5F5F5E2F5F5F5F5F5F5F5F5F5F5F5F5F5F5F5F5F5F5F5F5F5F5F5F5F5F5F5F5F5F5F5F5F5F5F5F5F5F5F5F5F5F5F5F5F5F5F5F5
310
F5F5F5F5F5F5F5F5F5F5F5F5F5F5F5F5F5F5F5F5F5F5F5F5F5F5F5F5F5F5F5F5F5F5F5F5F5F5F5F5F5F5F5F5F5F5F5F5F5F5F5F5F5F5F5F5F5F5F5F5F5F5F5F5F5F5F5F5F5F5F5F5F5F5F5F5F5F5F5F5F5F5F5F5F5F5F5F5F5F5F5F5F5F5F5F5F5F5F5F5F5E2F5F5F5F5F5F5F5F5F5F5F5F5F5F5F5F5F5F5F5F5F5F5F5F5F5
310
F5F5F5F5F5F5F5F5F5F5F5F5F5F5F5F5F5F5F5F5E2F5F5F5E2F5F5F5F5F5F5F5F5F5F5F5F5F5F5F5F5F5F5F5F5F5F5F5F5F5F5F5F5F5F5F5F5F5F5F5F5F5F5F5F5E2F5F5F5F5F5E2E2EFE2F5F5F5F5F5E2F5F5F5F5F5F5F5F5F5F5F5F5F5F5F5F5F5F5F5F5F5F5F5F5F5F5F5F5F5F5F5F5F5F5F5F5F5F5F5F5F5F5F5F5F5F5
310
F5F5F5F5F5F5F5F5F5F5F5F5F5F5F5F5F5F5F5F5F5F5F5F5F5F5F5F5F5F5F5F5F5F5F5F5F5F5F5F5F5F5F5F5F5F5F5F5F5F5F5F5F5F5F5F5F5F5F5F5F5F5F5F5F5F5F5F5F5F5F5F5F5F5F5F5E2E2E2F5E2F5F5E2F5E2E2E2E2F5E2E2E2E2E2E2E2E2F5F5F5E2E2F5E2F5E2F5F5F5F5E2F5E2F5F5F5E2F5E2F5F5E2F5F5F5F5
310
F5F5F5F5F5F5F5F5F5F5F5F5F5F5F5F5F5F5F5F5F5F5E2F5F5F5E2F5F5F5F5F5F5F5F5F5F5F5F5F5F5F5F5F5F5F5F5F5F5F5F5F5F5F5F5F5F5F5F5F5F5F5F5F5F5F5F5E2F5F5F5F5F5E2E2EFE2F5F5F5F5F5E2F5F5F5F5F5F5F5F5F5F5F5F5F5F5F5F5F5F5F5F5F5F5F5F5F5F5F5F5F5F5F5F5F5F5F5F5F5F5F5F5F5F5F5F5
310
F5F5F5F5F5F5F5F5F5F5F5F5F5F5F5F5F5F5F5F5F5F5F5F5F5F5F5F5F5F5F5F5F5F5F5F5F5F5F5F5F5F5F5F5F5F5F5F5F5F5F5F5F5F5F5F5F5F5F5F5F5F5F5F5F5F5F5F5F5F5F5F5F5F5E2E2E2E2F5E2F5E2F5F5F5E2E2E2F5E2E2E2E2E2E2E2E2F5E2E2E2F5F5E2E2F5E2E2E2E2E2E2F5E2E2E2E2F5F5E2E2E2E2F5E2F5F5
310
F5F5F5F5F5F5F5F5F5F5F5F5F5F5F5F5F5F5F5F5F5F5F5F5E2F5F5F5E2F5F5F5F5F5F5F5F5F5F5F5F5F5F5F5F5F5F5F5F5F5F5F5F5F5F5F5F5F5F5F5F5F5F5F5F5F5F5F5F5E2F5F5F5F5F5E2E2EFE2F5F5F5F5F5E2F5F5F5F5F5F5F5F5F5F5F5F5F5F5F5F5F5F5F5F5F5F5F5F5F5F5F5F5F5F5F5F5F5F5F5F5F5F5F5F5F5F5
310
F5F5F5F5F5F5F5F5F5F5F5F5F5F5F5F5F5F5F5F5F5F5F5F5F5F5F5F5F5F5F5F5F5F5F5F5F5F5F5F5F5F5F5F5F5F5F5F5F5F5F5F5F5F5F5F5F5F5F5F5F5F5F5F5F5F5F5F5F5F5F5F5F5F5F5F5E2F5F5F5E2E2F5E2F5F5F5E2E2E2F5E2E2E2F5E2E2E2E2E2E2E2E2F5F5E2E2F5F5E2E2F5F5F5F5E2F5E2F5F5F5E2E2E2F5E2E2
310
F5F5F5F5F5F5F5F5F5F5F5F5F5F5F5F5F5F5F5F5F5F5F5F5F5F5E2F5F5F5E2F5F5F5F5F5F5F5F5F5F5F5F5F5F5F5F5F5F5F5F5F5F5F5F5F5F5F5F5F5F5F5F5F5F5F5F5F5F5F5F5E2F5F5F5F5F5E2E2EFE2F5F5F5F5F5E2F5F5F5F5F5F5F5F5F5F5F5F5F5F5F5F5F5F5F5F5F5F5F5F5F5F5F5F5F5F5F5F5F5F5F5F5F5F5F5F5
310
F5F5F5F5F5F5F5F5F5F5F5F5F5F5F5F5F5F5F5F5F5F5F5F5F5F5F5F5F5F5F5F5F5F5F5F5F5F5F5F5F5F5F5F5F5F5F5F5F5F5F5F5F5F5F5F5F5F5F5F5F5F5F5F5F5F5F5F5F5F5F5F5F5F5F5F5F5F5E2F5F5F5E2E2E2F5E2F5F5E2E2E2F5E2E2F5E2E2E2E2E2E2E2E2F5F5F5E2E2F5F5E2E2F5F5F5F5E2F5E2F5F5F5E2F5E2E2
310
E2E2E2F5F5F5F5F5F5F5F5F5F5F5F5F5F5F5F5F5F5F5F5F5F5F5F5F5E2F5E2F5E2F5F5F5F5F5F5F5E2E2E2E2F5F5F5E2E2E2E2E2E2E2F5F5F5F5F5F5F5F5F5F5F5F5F5F5F5F5F5F5F5E2F5F5F5F5F5E2E2EFE2F5F5F5F5F5E2F5F5F5F5F5F5F5F5F5F5F5F5F5F5F5F5F5F5F5F5F5F5F5F5F5F5F5F5F5F5F5F5F5F5F5F5F5F5
310
F5F5F5F5F5F5F5F5F5F5F5F5F5F5F5F5F5F5F5F5F5F5F5F5F5F5F5F5F5F5F5F5F5F5F5F5F5F5F5F5F5F5F5F5F5F5F5F5F5F5F5F5F5F5F5F5F5F5F5F5F5F5F5F5F5F5F5F5F5F5F5F5F5F5F5F5F5F5F5F5E2F5F5F5F5F5F5F5F5F5F5F5F5F5F5F5F5F5F5F5F5F5F5F5F5F5F5F5F5F5F5F5F5F5F5F5F5F5F5F5F5F5F5F5F5F5F5
310
F5F5F5F5F5F5F5F5F5F5F5F5F5F5F5F5F5F5F5F5F5F5F5F5F5F5E2E2E2E2E2E2E2F5E2E2E2E2E2E2E2F5F5E2E2E2F5F5E2F5E2F5F5E2E2E2F5F5F5F5F5F5F5F5F5F5F5F5F5F5F5F5F5F5F5E2F5F5F5F5F5E2E2EFE2F5F5F5F5F5E2F5F5F5F5F5F5F5F5F5F5F5F5F5F5F5F5F5F5F5F5F5F5F5F5F5F5F5F5F5F5F5F5F5F5F5F5
310
F5F5F5F5F5F5F5F5F5F5F5F5F5F5F5F5F5F5F5F5F5F5F5F5F5F5F5F5F5F5F5F5F5F5F5F5F5F5F5F5F5F5F5F5F5F5F5F5F5F5F5F5F5F5F5F5F5F5F5F5F5F5F5F5F5F5F5F5F5F5F5F5F5F5F5F5F5F5F5F5F5F5E2F5F5F5F5F5F5F5F5F5F5F5F5F5F5F5F5F5F5F5F5F5F5F5F5F5F5F5F5F5F5F5F5F5F5F5F5F5F5F5F5F5F5F5F5
310
F5F5F5F5F5F5F5F5F5F5F5F5F5F5F5F5F5F5F5F5F5F5F5F5F5F5F5F5F5F5F5E2E2F5E2F5E2F5E2E2F5F5F5F5E2E2E2E2F5F5E2F5E2F5E2E2E2E2F5F5F5F5F5F5F5F5F5F5F5F5F5F5F5F5F5F5F5E2F5F5F5F5F5E2E2EFE2F5F5F5F5F5E2F5F5F5F5F5F5F5F5F5F5F5F5F5F5F5F5F5F5F5F5F5F5F5F5F5F5F5F5F5F5F5F5F5F5
310
F5F5F5F5F5F5F5F5F5F5F5F5F5F5F5F5F5F5F5F5F5F5F5F5F5F5F5F5F5F5F5F5F5F5F5F5F5F5F5F5F5F5F5F5F5F5F5F5F5F5F5F5F5F5F5F5F5F5F5F5F5F5F5F5F5F5F5F5F5F5F5F5F5F5F5F5F5F5F5F5F5F5F5F5E2F5F5F5F5F5F5F5F5F5F5F5F5F5F5F5F5F5F5F5F5F5F5F5F5F5F5F5F5F5F5F5F5F5F5F5F5F5F5F5F5F5F5
310
F5F5F5F5F5F5F5F5F5F5F5F5F5F5F5F5F5F5F5F5F5F5F5F5F5F5F5F5F5F5F5F5F5F5E2F5E2F5E2F5F5F5F5F5F5F5E2E2E2E2F5F5F5E2E2F5E2E2E2E2F5F5F5F5F5F5F5F5F5F5F5F5F5F5F5F5F5F5F5E2F5F5F5F5F5E2E2EFE2F5F5F5F5F5E2F5F5F5F5F5F5F5F5F5F5F5F5F5F5F5F5F5F5F5F5F5F5F5F5F5F5F5F5F5F5F5F5
310
F5F5F5F5F5F5F5F5F5F5F5F5F5F5F5F5F5F5F5F5F5F5F5F5F5F5F5F5F5F5F5F5F5F5F5F5F5F5F5F5F5F5F5F5F5F5F5F5F5F5F5F5F5F5F5F5F5F5F5F5F5F5F5F5F5F5F5F5F5F5F5F5F5F5F5F5F5F5F5F5F5F5F5F5F5F5E2F5F5F5F5F5F5F5F5F5F5F5F5F5F5F5F5F5F5F5F5F5F5F5F5F5F5F5F5F5F5F5F5F5F5F5F5F5F5F5F5
310
F5F5F5F5F5F5F5F5F5F5F5F5F5F5F5F5F5F5F5F5F5F5F5F5F5F5F5F5F5F5F5F5F5F5F5F5E2F5E2F5E2F5F5F5F5F5F5F5F5F5F5F5F5F5F5F5F5F5F5F5F5F5F5F5F5F5F5F5F5F5F5F5F5F5F5F5F5F5F5F5F5E2F5F5F5F5F5E2E2EFE2F5F5F5F5F5E2F5F5F5F5F5F5F5F5F5F5F5F5F5F5F5F5F5F5F5F5F5F5F5F5F5F5F5F5F5F5
310
F5F5F5F5F5F5F5F5F5F5F5F5F5F5F5F5F5F5F5F5F5F5F5F5F5F5F5F5F5F5F5F5F5F5F5F5F5F5F5F5F5F5F5F5F5F5F5F5F5F5F5F5F5F5F5F5F5F5F5F5F5F5F5F5F5F5F5F5F5F5F5F5F5F5F5F5F5F5F5F5F5F5F5F5F5F5F5F5E2F5F5F5F5F5F5F5F5F5F5F5F5F5F5F5F5F5F5F5F5F5F5F5F5F5F5F5F5F5F5F5F5F5F5F5F5F5F5
310
F5F5F5F5F5F5F5F5F5F5F5F5F5F5F5F5F5F5F5F5F5F5F5F5F5F5F5F5F5F5F5F5F5F5F5F5F5F5E2F5E2F5E2F5F5F5F5F5F5F5F5F5F5F5F5F5F5F5F5F5F5F5F5F5F5F5F5F5F5F5F5F5F5F5F5F5F5F5F5F5F5F5F5E2F5F5F5F5F5E2E2EFE2F5F5F5F5F5E2F5F5F5F5F5F5F5F5F5F5F5F5F5F5F5F5F5F5F5F5F5F5F5F5F5F5F5F5
310
F5F5F5F5F5F5F5F5F5F5F5F5F5F5F5F5F5F5F5F5F5F5F5F5F5F5F5F5F5F5F5F5F5F5F5F5F5F5F5F5F5F5F5F5F5F5F5F5F5F5F5F5F5F5F5F5F5F5F5F5F5F5F5F5F5F5F5F5F5F5F5F5F5F5F5F5F5F5F5F5F5F5F5F5F5F5F5F5F5E2F5F5F5F5F5F5F5F5F5F5F5F5F5F5F5F5F5F5F5F5F5F5F5F5F5F5F5F5F5F5F5F5F5F5F5F5F5
310
F5F5F5F5F5F5F5F5F5F5F5F5F5F5F5F5F5F5F5F5F5F5F5F5F5F5F5F5F5F5F5F5F5F5F5F5F5F5F5F5E2F5E2F5E2F5F5F5F5F5F5F5F5F5F5F5F5F5F5F5F5F5F5F5F5F5F5F5F5F5F5F5F5F5F5F5F5F5F5F5F5F5F5F5F5E2F5F5F5F5F5E2E2EFE2F5F5F5F5F5E2F5F5F5F5F5F5F5F5F5F5F5F5F5F5E2E2E2E2E2E2E2E2E2E2E2E2
310
E2E2E2E2E2E2E2E2E2E2E2E2E2E2E2E2E2E2E2E2E2E2E2E2E2E2E2E2E2E2E2E2E2E2E2E2E2E2E2E2E2E2E2E2E2E2E2F5F5F5F5F5F5F5F5F5F5F5F5F5F5F5F5F5F5F5F5F5F5F5F5F5F5F5F5F5F5E2E2E2E2E2E2E2E2E2E2E2E2E2E2E2E2E2E2F5F5F5F5F5F5F5F5F5F5F5F5F5F5F5F5F5F5F5F5F5F5F5F5F5F5F5F5F5F5F5F5
310
F5F5F5F5E2E2E2E2E2E2E2E2E2E2E2E2E2E2E2E2E2E2E2E2E2E2E2E2E2E2E2E2E2E2E2E2E2E2E2E2E2F5E2F5E2F5E2F5F5F5F5F5F5F5F5F5F5F5F5F5F5F5F5F5F5F5F5F5F5F5F5F5F5F5F5F5F5F5F5F5F5F5F5F5F5F5F5E2F5F5F5F5F5E2E2EFE2F5F5F5F5F5E2F5F5F5F5F5F5F5F5F5F5F5F5F5E2F5F5F5F5F5F5F5F5F5F5
310
F5F5F5F5F5F5F5F5F5F5F5F5F5F5F5F5F5F5F5F5F5F5F5F5F5F5F5E2F5F5F5F5F5F5F5F5F5F5F5F5F5F5F5F5F5F5F5E2F5F5F5F5F5F5F5F5F5F5F5F5F5F5F5F5F5F5F5F5F5F5F5F5F5F5F5F5F5F5F5E2F5F5E2F5F5F5F5F5F5F5F5F5F5E2F5F5E2F5F5F5F5F5F5F5F5F5F5F5F5F5F5F5F5F5F5F5F5F5F5F5F5F5F5F5F5F5F5
310
F5F5F5F5F5E2F5F5F5F5F5F5F5F5F5F5F5F5F5E2F5F5F5F5F5F5F5F5F5E2F5F5F5F5F5F5F5F5F5F5F5F5F5E2E2F5E2F5E2F5F5F5F5F5F5F5F5F5F5F5F5F5F5F5F5F5F5F5F5F5F5F5F5F5F5F5F5F5F5F5F5F5F5F5F5F5F5F5F5E2F5F5F5F5F5E2E2EFE2F5F5F5F5F5E2F5F5F5F5F5F5F5F5F5F5F5F5E2F5E2E2E2E2E2E2E2E2
310
E2E2E2E2E2E2E2E2E2E2E2E2E2E2E2E2E2E2E2E2E2E2E2E2E2E2E2E2F5E2F5F5F5F5F5F5F5F5F5F5F5F5F5F5F5F5F5F5E2E2F5F5F5F5F5F5F5F5F5F5F5F5F5F5F5F5F5F5F5F5F5F5F5F5F5F5E2E2E2E2E2E2F5F5E2F5F5F5F5F5F5F5F5F5F5E2F5F5E2F5F5F5F5F5F5F5F5F5F5F5F5F5F5F5F5F5F5F5F5F5F5F5F5F5F5F5F5
310
F5F5F5F5F5F5E2F5F5F5F5F5F5F5F5F5F5F5F5F5F5E2F5F5F5F5F5F5F5F5F5E2F5F5F5F5F5F5F5F5F5F5F5F5F5E2E2F5E2F5E2F5F5F5F5F5F5F5F5F5F5F5F5F5F5F5F5F5F5F5F5F5F5F5F5F5F5F5F5F5F5F5F5F5F5F5F5F5F5F5F5E2F5F5F5F5F5E2E2EFE2F5F5F5F5F5E2F5F5F5F5F5F5F5F5F5F5F5E2F5F5E2E2E2E2E2E2
310
E2E2E2E2E2E2E2E2E2E2E2E2E2E2E2E2E2E2E2E2E2E2E2E2E2E2E2E2E2E2E2F5E2E2F5F5F5F5F5F5F5F5F5F5F5F5F5F5F5F5E2E2F5F5F5F5F5F5F5F5F5F5F5F5F5F5F5F5F5F5F5E2E2E2E2E2E2E2F5F5F5F5F5E2F5F5E2E2E2E2E2E2E2E2E2E2E2E2E2E2E2E2E2E2F5F5F5F5F5F5F5F5F5F5F5F5F5F5F5F5F5F5F5F5F5F5F5
310
F5F5F5F5F5F5F5E2F5F5F5F5E2E2E2E2E2E2E2E2E2E2E2E2E2E2E2E2E2E2E2E2E2E2E2E2E2E2E2E2E2E2E2E2E2F5F5F5E2E2E2F5E2F5F5F5F5F5F5F5F5F5F5F5F5F5F5F5F5F5F5F5F5F5F5F5F5F5F5F5F5F5F5F5F5F5F5F5F5F5F5F5F5E2F5F5F5F5F5E2E2EFE2F5F5F5F5F5E2F5F5F5F5F5F5F5F5F5F5F5E2F5E2E2E2E2E2
310
F5F5F5F5F5F5F5F5F5F5F5F5F5F5F5F5F5F5F5F5F5F5F5F5F5F5F5F5F5E2E2E2E2E2F5E2F5F5F5F5F5F5F5F5F5F5F5F5F5F5F5F5F5E2F5F5F5F5F5F5F5F5F5F5F5F5F5F5F5F5F5F5F5E2E2F5F5F5F5F5F5F5F5F5F5E2F5F5E2F5F5F5F5F5F5F5F5F5F5E2F5F5F5F5F5F5E2F5F5F5F5F5F5F5F5F5F5F5F5F5F5F5F5F5F5F5F5
310
F5F5F5F5F5F5F5F5F5E2F5F5E2E2E2E2E2E2E2E2E2E2E2E2E2E2E2E2E2E2E2E2E2E2E2E2E2E2E2E2E2E2E2E2E2E2E2E2F5F5E2E2E2F5E2F5F5F5F5F5F5F5F5F5F5F5F5F5F5F5F5F5F5F5F5F5F5F5F5F5F5F5F5F5F5F5F5F5F5F5F5F5F5F5F5E2F5F5F5F5F5E2E2EFE2F5F5F5F5F5E2F5F5F5F5F5F5F5F5F5F5F5E2F5E2E2E2
310
E2E2E2F5F5F5F5F5F5F5F5F5F5F5F5F5F5F5F5F5F5F5F5F5F5F5F5F5F5F5E2E2E2E2E2E2F5E2F5F5F5F5F5F5F5F5F5F5F5F5F5F5F5F5F5E2F5F5F5F5F5F5F5F5F5F5F5F5F5F5F5F5F5F5F5E2E2F5F5F5F5F5F5F5F5F5F5E2F5F5E2F5F5F5F5F5F5F5F5F5F5E2F5F5F5F5F5F5F5E2F5F5F5F5F5F5F5F5F5F5F5F5F5F5F5F5F5
310
F5F5F5F5F5F5F5F5F5F5F5E2F5F5E2F5F5F5F5F5F5F5F5F5F5F5F5F5F5F5F5F5F5F5F5F5F5F5F5F5F5F5F5F5F5F5F5F5F5E2E2F5E2E2E2F5E2F5F5F5F5F5F5F5F5F5F5F5F5F5F5F5F5F5F5F5F5F5F5F5F5F5F5F5F5F5F5F5F5F5F5F5F5F5F5F5F5E2F5F5F5F5F5E2E2EFE2F5F5F5F5F5E2F5F5F5F5F5F5F5F5F5F5F5E2F5E2
310
E2E2E2E2E2E2E2E2E2E2E2E2E2E2E2E2E2E2E2E2E2E2E2E2E2E2E2E2E2E2E2E2E2E2E2E2E2E2F5E2F5F5F5F5F5F5F5F5F5F5F5F5F5F5F5F5F5E2F5F5F5F5F5F5F5F5F5F5F5F5F5F5F5F5F5F5F5E2E2F5F5F5F5F5F5F5F5F5F5E2F5F5E2F5F5F5F5F5F5F5F5F5F5E2F5F5F5F5F5F5F5E2F5F5F5F5F5F5F5F5F5F5F5F5F5F5F5
310
F5F5F5F5F5F5F5F5F5F5F5F5F5E2F5F5E2F5F5F5F5F5F5F5F5F5F5F5F5F5F5F5F5F5F5F5F5F5F5F5F5F5F5F5F5F5F5F5F5F5F5E2E2F5E2E2E2F5E2F5F5F5F5F5F5F5F5F5F5F5F5F5F5F5F5F5F5F5F5F5F5F5F5F5F5F5F5F5F5F5F5F5F5F5F5F5F5F5F5E2F5F5F5F5F5E2E2EFE2F5F5F5F5F5E2F5F5F5F5F5F5F5F5F5F5F5E2
310
F5E2E2E2E2E2E2E2E2F5E2E2F5F5E2F5F5E2E2E2E2E2F5E2F5F5E2F5F5E2F5F5E2E2E2E2E2E2E2E2F5E2F5F5F5F5F5F5F5F5F5F5F5F5F5F5F5F5F5E2F5F5F5F5F5F5F5F5F5F5F5F5F5F5F5F5F5F5F5E2E2F5F5F5F5F5F5F5F5F5F5E2F5F5E2F5F5F5F5F5F5F5F5F5F5E2F5F5F5F5F5F5F5E2F5F5F5F5F5F5F5F5F5F5F5F5F5
310
F5F5F5F5F5F5F5F5F5F5F5F5F5F5F5E2F5F5E2F5F5F5F5F5F5F5F5F5F5F5F5F5F5F5F5F5F5F5F5F5F5F5F5F5F5F5F5F5F5F5F5F5F5E2E2F5E2E2E2F5E2F5F5F5F5F5F5F5F5F5F5F5F5F5F5F5F5F5F5F5F5F5F5F5F5F5F5F5F5F5F5F5F5F5F5F5F5F5F5F5F5E2F5F5F5F5F5E2E2EFE2F5F5F5F5F5E2F5F5F5F5F5F5F5F5F5F5
310
F5E2F5E2E2F5F5E2F5E2E2E2E2E2E2E2E2E2E2E2E2E2E2E2E2E2E2E2E2E2E2E2E2E2E2E2F5E2F5F5E2E2F5E2F5F5F5F5F5F5F5F5F5F5F5F5F5F5F5F5F5E2F5F5F5F5F5F5F5F5F5F5F5F5F5F5F5F5F5F5F5E2E2F5F5F5F5F5F5F5F5F5F5E2F5F5E2F5F5F5F5F5F5F5F5F5F5E2F5F5F5F5F5F5F5E2F5F5F5F5F5F5F5F5F5F5F5
310
F5F5F5F5F5F5F5F5F5F5F5F5F5F5F5F5F5E2F5F5E2F5F5F5F5F5F5F5F5F5F5F5F5F5F5F5F5F5F5F5F5F5F5F5F5F5F5F5F5F5F5F5F5F5F5E2E2F5E2E2E2F5E2F5F5F5F5F5F5F5F5F5F5F5F5F5F5F5F5F5F5F5F5F5F5F5F5F5F5F5F5F5F5F5F5F5F5F5F5F5F5F5F5E2F5F5F5F5F5E2E2EFE2F5F5F5F5F5E2F5F5F5F5F5F5F5F5
310
F5F5F5E2F5E2E2F5F5E2E2E2E2E2E2E2E2E2E2E2E2E2E2E2E2E2E2E2E2E2E2E2E2E2E2E2E2E2E2E2F5F5E2E2F5E2F5F5F5F5F5F5F5F5F5F5F5F5F5F5F5F5F5E2F5F5F5F5F5F5F5F5F5F5F5F5F5F5F5F5F5F5F5E2E2F5F5F5F5F5F5F5F5F5F5E2F5F5E2F5F5F5F5F5F5F5F5F5F5E2F5F5F5F5F5F5F5E2F5F5F5F5F5F5F5F5F5
310
F5F5F5F5F5F5F5F5F5F5F5F5F5F5F5F5F5F5F5E2F5F5E2F5F5F5F5F5F5F5F5F5F5F5F5F5F5F5F5F5F5F5F5F5F5F5F5F5F5F5F5F5F5F5F5F5F5E2E2F5E2E2E2F5E2F5F5F5F5F5F5F5F5F5F5F5F5F5F5F5F5F5F5F5F5F5F5F5F5F5F5F5F5F5F5F5F5F5F5F5F5F5F5F5F5E2F5F5F5F5F5E2E2EFE2F5F5F5F5F5E2F5F5F5F5F5F5
310
F5F5F5F5F5E2F5E2E2F5F5E2F5E2E2F5E2E2F5F5E2F5F5E2E2E2E2E2F5E2F5F5E2F5F5E2F5F5E2E2F5E2F5F5E2E2F5E2F5F5F5F5F5F5F5F5F5F5F5F5F5F5F5F5F5E2F5F5F5F5F5F5F5F5F5F5F5F5F5F5F5F5F5F5F5E2E2F5F5F5F5F5F5F5F5F5F5E2F5F5E2F5F5F5F5F5F5F5F5F5F5E2F5F5F5F5F5F5F5E2F5F5F5F5F5F5F5
310
F5F5F5F5F5F5F5F5F5F5F5F5F5F5F5F5F5F5F5F5F5E2F5F5E2F5F5F5F5F5F5F5F5F5F5F5F5F5F5F5F5F5F5F5F5F5F5F5F5F5F5F5F5F5F5F5F5F5F5E2E2F5E2E2E2F5E2F5F5F5F5F5F5F5F5F5F5F5F5F5F5F5F5F5F5F5F5F5F5F5F5F5F5F5F5F5F5F5F5F5F5F5F5F5F5F5F5E2F5F5F5F5F5E2E2EFE2F5F5F5F5F5E2F5F5F5F5
310
F5F5F5F5F5F5F5E2F5E2E2F5F5E2F5E2E2F5E2E2E2E2E2E2E2E2E2E2E2E2E2E2E2E2E2E2E2E2E2F5E2E2F5E2F5F5E2E2F5E2F5F5F5F5F5F5F5F5F5F5F5F5F5E2F5E2E2E2E2E2F5F5F5F5F5F5F5F5F5F5F5F5F5F5F5F5F5E2E2F5F5F5F5F5F5F5F5F5F5E2F5F5E2F5F5F5F5F5F5F5F5F5F5E2F5F5F5F5F5F5F5E2F5F5F5F5F5
310
F5F5F5F5F5F5F5F5F5F5F5F5F5F5F5F5F5F5F5F5F5F5F5E2F5F5E2F5F5F5F5F5F5F5F5F5F5F5F5F5F5F5F5F5F5F5F5F5F5F5F5F5F5F5F5F5F5F5F5F5F5E2E2F5E2E2E2F5E2F5F5F5F5F5F5F5F5F5F5F5F5F5F5F5F5F5F5F5F5F5F5F5F5F5F5F5F5F5F5F5F5F5F5F5F5F5F5F5F5E2F5F5F5F5F5E2E2EFE2F5F5F5F5F5E2F5F5
310
F5F5F5F5F5F5F5F5F5E2F5E2E2F5F5E2E2E2E2E2E2E2E2E2E2E2E2E2E2E2E2E2E2E2E2E2E2E2E2E2E2E2E2E2E2E2F5F5E2E2F5E2F5F5F5F5F5F5F5F5F5F5F5F5E2E2E2E2F5E2E2E2F5F5F5F5F5F5F5F5F5F5F5F5F5F5F5F5F5E2E2F5F5F5F5F5F5F5F5F5F5E2F5F5E2F5F5F5F5F5F5F5F5F5F5E2F5F5F5F5F5F5F5E2F5F5F5
310
F5F5F5F5F5F5F5F5F5F5F5F5F5F5F5F5F5F5F5F5F5F5F5F5F5E2F5F5E2F5F5F5F5F5F5F5F5F5F5F5F5F5F5F5F5F5F5F5F5F5F5F5F5F5F5F5F5F5F5F5F5F5F5E2E2F5E2E2E2F5E2F5F5F5F5F5F5F5F5F5F5F5F5F5F5F5F5F5F5F5F5F5F5F5F5F5F5F5F5F5F5F5F5F5F5F5F5F5F5F5F5E2F5F5F5F5F5E2E2EFE2F5F5F5F5F5E2
310
F5F5F5F5F5F5F5F5F5F5F5E2F5E2E2F5F5E2F5E2E2F5E2E2F5F5E2F5F5E2E2E2F5E2F5E2F5F5E2F5F5E2E2F5E2E2F5E2F5F5E2E2F5E2F5F5F5F5F5F5F5F5F5F5F5F5F5E2F5F5E2E2E2E2F5F5F5F5F5F5F5F5F5F5F5F5F5F5F5F5F5E2E2F5F5F5F5F5F5F5F5F5F5E2F5F5E2F5F5F5F5F5F5F5F5F5F5E2F5F5F5F5F5F5F5E2F5
310
F5F5F5F5F5F5F5F5F5F5F5F5F5F5F5F5F5F5F5F5F5F5F5F5F5F5F5E2F5F5E2F5F5F5F5F5F5F5F5F5F5F5F5F5F5F5F5F5F5F5F5F5F5F5F5F5F5F5F5F5F5F5F5F5F5E2E2F5E2E2E2F5E2F5F5F5F5F5F5F5F5F5F5F5F5F5F5F5F5F5F5F5F5F5F5F5F5F5F5F5F5F5F5F5F5F5F5F5F5F5F5F5F5E2F5F5F5F5F5E2E2EFE2F5F5F5F5
310
F5E2F5F5F5F5F5F5F5F5F5F5F5E2F5E2E2F5F5E2F5E2E2F5E2E2F5E2E2E2E2E2E2E2E2E2E2E2E2E2E2E2F5E2E2F5E2E2F5E2F5F5E2E2F5E2F5F5F5F5F5F5F5F5F5F5F5F5F5E2F5F5E2E2E2E2F5F5F5F5F5F5F5F5F5F5F5F5F5F5F5F5F5E2E2F5F5F5F5F5F5F5F5F5F5E2F5F5E2F5F5F5F5F5F5F5F5F5F5E2F5F5F5F5F5F5F5
310
E2F5F5F5F5F5F5F5F5F5F5F5F5F5F5F5F5F5F5F5F5F5F5F5F5F5F5F5F5E2F5F5E2F5F5F5F5F5F5F5F5F5F5F5F5F5F5E2E2E2E2E2E2F5F5F5F5F5F5F5F5F5F5F5F5F5F5E2E2F5E2E2E2F5E2F5F5F5F5F5F5F5F5F5F5F5F5F5F5F5F5F5F5F5F5F5F5F5F5F5F5F5F5F5F5F5F5F5F5F5F5F5F5F5F5E2F5F5F5F5F5E2E2EFE2F5F5
310
F5F5F5E2F5F5F5F5F5F5F5F5F5F5F5E2F5E2E2F5F5E2E2E2E2E2E2E2E2E2E2E2E2E2E2E2E2E2E2E2E2E2E2E2E2E2E2E2E2E2E2E2F5F5E2E2F5E2F5F5F5F5F5F5F5F5F5F5F5F5F5F5F5F5F5E2F5F5F5F5F5F5F5F5F5F5F5F5F5F5F5F5F5F5F5E2E2F5F5F5F5F5F5F5F5F5F5E2F5F5E2F5F5F5F5F5F5F5F5F5E2F5F5F5F5F5F5
310
F5F5E2F5F5F5F5F5F5F5F5F5F5F5F5F5F5F5F5F5F5F5F5F5F5F5F5F5F5F5F5E2F5F5E2F5F5F5F5F5F5F5F5F5F5F5F5F5E2E2E2F5E2E2E2E2F5F5F5F5F5F5F5F5F5F5F5F5F5E2E2F5E2E2E2F5E2F5F5F5F5F5F5F5F5F5F5F5F5F5F5F5F5F5F5F5F5F5F5F5F5F5F5F5F5F5F5F5F5F5F5F5F5F5F5F5F5E2F5F5F5F5F5E2E2EFE2
310
F5F5F5F5F5E2F5F5F5F5F5F5F5F5F5F5F5E2F5E2E2F5F5E2F5E2E2F5E2E2F5E2E2F5E2E2E2E2E2E2E2E2E2F5E2E2F5E2E2F5E2E2F5E2F5F5E2E2F5E2F5F5F5F5F5F5F5F5F5F5F5F5F5F5F5F5F5E2F5F5F5F5F5F5F5F5F5F5F5F5F5F5F5F5F5F5F5E2E2F5F5F5F5F5F5F5F5F5F5E2F5F5E2F5F5F5F5F5F5F5F5F5E2F5F5F5F5
310
F5F5E2E2E2F5F5F5F5F5F5F5F5F5F5F5F5F5F5F5F5F5F5F5F5F5F5F5F5F5F5F5F5E2F5F5E2F5F5F5F5F5F5F5F5F5F5F5F5E2E2F5E2E2F5E2E2E2E2F5F5F5F5F5F5F5F5F5F5F5F5E2E2F5E2E2E2F5E2F5F5F5F5F5F5F5F5F5F5F5F5F5F5F5F5F5F5F5F5F5F5F5F5F5F5F5F5F5F5F5F5F5F5F5F5F5F5F5F5E2F5F5F5F5F5E2E2
310
EFE2F5F5F5F5F5E2F5F5F5F5F5F5F5F5F5E2E2E2F5E2E2F5F5E2F5E2E2F5E2E2F5E2E2E2E2F5F5F5F5F5F5F5E2E2E2E2F5E2E2F5E2E2F5E2F5F5E2E2F5E2E2E2F5F5F5F5F5F5F5F5F5F5F5F5F5F5F5E2F5F5F5F5F5F5F5F5F5F5F5F5F5F5F5F5F5F5F5E2E2F5F5F5F5F5F5F5F5F5F5E2F5F5E2F5F5F5F5F5F5F5F5F5E2F5F5
310
F5F5F5F5E2F5E2F5F5F5F5F5F5F5F5F5F5F5F5F5F5F5F5F5F5F5F5F5F5F5F5F5F5F5E2E2E2E2E2E2E2E2F5F5F5F5F5F5F5F5F5E2E2E2F5F5F5F5F5E2E2F5F5F5F5F5F5F5F5F5F5E2E2E2E2E2E2E2E2F5E2F5F5F5F5F5F5F5F5F5F5F5F5F5F5F5F5F5F5F5F5F5F5F5F5F5F5F5F5F5F5F5F5F5F5F5F5F5F5F5F5E2F5F5F5F5F5
310
E2E2EFE2F5F5F5F5F5E2F5F5F5F5F5F5E2E2E2F5F5E2F5E2E2F5F5E2E2E2E2E2E2E2E2E2E2E2F5E2E2E2E2E2E2E2F5E2E2E2E2E2E2E2E2E2E2E2F5F5E2E2F5E2F5F5E2E2E2F5F5F5F5F5F5F5F5F5F5F5F5E2F5F5F5F5F5F5F5F5F5F5F5F5F5F5F5F5F5F5F5E2E2F5F5F5F5F5F5F5F5F5F5E2F5F5E2F5F5F5F5F5F5F5F5F5E2
310
F5F5F5F5F5F5E2F5E2F5F5F5F5F5F5F5F5F5F5F5F5F5F5F5F5F5F5F5F5F5F5F5E2E2E2E2E2F5F5F5F5F5F5E2F5F5F5F5F5F5F5F5F5E2E2F5F5F5F5F5F5F5E2E2F5F5F5F5F5F5F5F5F5E2F5F5F5F5E2F5E2E2E2E2E2F5F5F5F5F5F5F5F5F5F5F5F5F5F5F5F5F5F5F5F5F5F5F5F5F5F5F5F5F5F5F5F5F5F5F5F5F5F5E2F5F5F5
310
F5F5E2E2EFE2F5F5F5F5F5E2F5F5F5F5F5E2F5F5F5F5F5E2F5E2E2F5F5E2F5E2E2F5E2E2F5E2E2E2F5E2E2E2E2E2E2E2F5E2E2E2F5E2E2F5E2E2F5E2F5F5E2E2F5E2F5F5F5F5F5E2F5F5F5F5F5F5F5F5F5F5F5E2F5F5F5F5F5F5F5F5F5F5F5F5F5F5F5F5F5F5F5E2E2F5F5F5F5F5F5F5F5F5F5E2F5F5E2F5F5F5F5F5F5F5F5
310
F5E2F5F5F5F5F5F5E2F5E2F5F5F5F5F5F5F5F5F5F5F5F5F5F5F5F5F5F5F5F5F5F5E2F5F5F5F5E2F5F5F5F5F5F5E2F5F5F5F5F5F5F5F5F5E2E2F5F5F5F5F5F5F5E2E2F5F5F5F5F5F5F5F5F5E2F5F5F5F5E2F5E2F5E2F5F5E2F5F5F5F5F5F5F5F5F5F5F5F5F5F5F5F5F5F5F5F5F5F5F5F5F5F5F5F5F5F5F5F5F5F5F5F5F5E2F5
310
F5F5F5F5E2E2EFE2F5F5F5F5F5E2F5F5F5F5E2F5F5E2E2E2E2E2F5E2E2F5F5E2F5E2E2F5E2E2F5E2E2E2F5E2E2E2E2E2E2E2F5E2E2E2F5E2E2F5E2E2F5E2F5F5E2E2F5E2E2E2E2E2F5F5E2F5F5F5F5F5F5F5F5F5F5E2F5F5F5F5F5F5F5F5F5F5F5F5F5F5F5F5F5F5F5E2E2F5F5F5F5F5F5F5F5F5F5E2F5F5E2F5F5F5F5F5F5
310
F5F5F5E2F5F5F5F5F5F5E2F5E2F5F5F5F5F5F5F5F5F5F5F5F5F5F5F5F5F5F5F5F5F5E2F5F5F5E2E2E2E2E2F5F5F5F5E2F5F5F5F5F5F5F5F5F5E2E2F5F5F5F5F5F5F5E2E2F5F5F5F5F5F5F5F5F5E2F5F5F5F5E2E2E2E2E2F5F5F5E2F5F5F5F5F5F5F5F5F5F5F5F5F5F5F5F5F5F5F5F5F5F5F5F5F5F5F5F5F5F5F5F5F5F5F5F5
310
E2F5F5F5F5F5E2E2EFE2F5F5F5F5F5E2F5F5F5F5E2F5F5E2F5F5F5E2F5E2E2F5F5E2E2E2E2E2E2E2E2E2E2E2F5E2E2E2F5E2E2E2F5E2E2E2E2E2E2E2E2E2E2E2F5F5E2E2F5E2F5F5F5E2F5F5E2F5F5F5F5F5F5F5F5F5F5E2F5F5F5F5F5F5F5F5F5F5F5F5F5F5F5F5F5F5F5E2E2F5F5F5F5F5F5F5F5F5F5E2F5F5E2F5F5F5F5
310
F5F5F5F5E2E2F5F5F5F5F5F5E2F5E2F5F5F5F5F5F5F5F5F5F5F5F5F5F5F5F5F5F5F5F5E2E2E2E2E2E2E2E2E2E2E2E2F5F5E2F5F5F5F5F5F5F5F5F5E2E2F5F5F5F5F5F5E2E2F5F5F5F5F5F5F5F5F5F5E2F5F5E2E2E2E2E2E2E2E2E2E2E2F5F5F5F5F5F5F5F5F5F5F5F5F5F5F5F5F5F5F5F5F5F5F5F5F5F5F5F5F5F5F5F5F5F5
310
F5F5E2F5F5F5F5F5E2E2EFE2F5F5F5F5F5E2F5F5F5F5E2F5F5E2E2E2E2E2F5E2E2F5F5E2E2E2E2E2E2E2E2E2E2E2F5E2E2E2E2E2E2E2F5E2E2E2E2E2E2E2E2E2E2E2F5F5E2E2F5E2E2E2E2E2F5F5E2F5F5F5F5F5F5F5F5F5F5E2F5F5F5F5F5F5F5F5F5F5F5F5F5F5F5F5F5F5F5E2E2F5F5F5F5F5F5F5F5F5F5E2F5F5E2E2E2
310
E2E2E2E2E2E2E2E2F5F5F5F5F5F5E2F5E2F5F5F5F5F5F5F5F5F5F5F5F5F5F5F5F5F5F5F5F5F5E2F5F5F5E2E2E2E2E2F5F5F5F5E2F5F5F5F5F5F5F5F5F5F5E2E2E2F5F5F5E2E2F5F5F5F5F5F5F5F5F5F5F5E2F5F5F5F5E2E2E2E2E2F5F5F5E2F5F5F5F5F5F5F5F5F5F5F5F5F5F5F5F5F5F5F5F5F5F5F5F5F5F5F5F5F5F5F5F5
310
F5F5F5F5E2F5F5F5F5F5E2E2EFE2F5F5F5F5F5E2F5F5F5F5F5E2F5F5F5F5F5E2F5E2E2F5F5E2F5E2E2F5E2E2F5E2E2E2F5E2E2F5F5F5E2E2F5E2E2E2F5E2E2F5E2E2F5E2F5F5E2E2F5E2F5F5F5F5F5E2F5F5F5F5F5F5F5F5F5F5F5E2F5F5F5F5F5F5F5F5F5F5F5F5F5F5F5F5F5F5F5E2E2F5F5F5F5F5F5F5F5F5F5E2F5F5F5
310
F5F5F5F5F5F5F5F5E2F5E2E2F5F5F5F5E2F5E2F5F5F5F5F5F5F5F5F5F5F5F5F5F5F5F5F5F5F5F5F5F5E2F5F5F5F5E2F5F5F5F5F5F5E2F5F5F5F5F5F5F5F5F5F5F5E2E2E2E2E2E2F5F5F5F5F5F5F5F5F5F5F5F5E2F5F5F5F5F5F5E2F5E2E2F5E2F5F5F5F5F5F5F5F5F5F5F5F5F5F5F5F5F5F5F5F5F5F5F5F5F5F5F5F5F5F5F5
310
F5F5F5F5F5F5E2F5F5F5F5F5E2E2EFE2F5F5F5F5F5E2F5F5F5F5F5F5E2E2E2F5F5E2F5E2E2F5F5E2E2E2E2E2E2E2E2E2E2E2F5E2F5E2E2E2F5E2F5E2E2E2E2E2E2E2E2E2E2E2F5F5E2E2F5E2F5F5E2E2E2F5F5F5F5F5F5F5F5F5F5F5F5E2F5F5F5F5F5F5F5F5F5F5F5F5F5F5F5F5F5F5F5E2E2F5F5F5F5F5F5F5F5F5F5E2F5
310
F5F5F5F5F5F5F5F5E2E2E2E2E2E2E2E2F5F5E2F5E2F5F5F5F5F5F5F5F5F5F5F5F5F5F5F5F5F5F5F5F5F5F5F5E2E2F5F5E2F5F5F5F5F5F5E2F5F5F5F5F5F5F5F5F5F5F5F5F5E2E2E2F5F5F5F5F5F5F5F5F5F5F5F5F5E2F5F5F5F5F5F5E2F5F5E2E2F5F5F5F5F5F5F5F5F5F5F5F5F5F5F5F5F5F5F5F5F5F5F5F5F5F5F5F5F5F5
310
F5F5F5F5F5F5F5F5E2F5F5F5F5F5E2E2EFE2F5F5F5F5F5E2F5F5F5F5F5F5F5F5F5E2E2E2F5E2E2F5F5E2E2E2E2E2E2E2E2E2E2E2F5E2E2E2E2E2E2E2F5E2E2E2E2E2E2E2E2E2E2E2F5F5E2E2F5E2E2E2F5F5F5F5F5F5F5F5F5F5F5F5F5F5F5E2F5F5F5F5F5F5F5F5F5F5F5F5F5F5F5F5F5F5F5E2E2F5F5F5F5F5F5F5F5F5F5
310
E2F5F5F5F5F5F5F5F5E2F5F5F5F5F5F5E2F5E2F5E2F5E2F5F5F5F5F5F5F5F5F5F5F5F5F5F5F5F5F5F5F5F5F5E2F5F5F5E2E2E2E2F5F5F5F5F5E2F5F5F5F5F5F5F5F5F5F5F5F5F5F5F5F5F5F5F5F5F5F5F5F5F5F5F5F5F5E2F5F5F5F5F5E2E2E2E2E2F5F5E2F5F5F5F5F5F5F5F5F5F5F5F5F5F5F5F5F5F5F5F5F5F5F5F5F5F5
310
F5F5F5F5F5F5F5F5F5F5E2F5F5F5F5F5E2E2EFE2F5F5F5F5F5E2F5F5F5F5F5F5F5F5F5F5F5E2F5E2E2F5F5E2F5E2E2F5E2E2F5E2E2E2E2E2E2E2E2E2E2E2E2E2E2E2F5E2E2F5E2E2F5E2F5F5E2E2F5E2F5F5F5F5F5F5F5F5F5F5F5F5F5F5F5F5F5E2F5F5F5F5F5F5F5F5F5F5F5F5F5F5F5F5F5F5F5E2E2F5F5F5F5F5F5F5F5
310
F5F5E2F5F5F5F5F5F5F5E2F5F5E2E2E2E2F5E2F5E2F5E2E2E2F5F5F5F5F5F5F5F5F5F5F5F5F5F5F5F5F5F5F5F5F5E2F5F5F5F5F5F5E2E2E2E2E2E2E2F5F5F5F5F5F5F5F5F5F5F5F5F5F5F5F5F5F5F5F5F5F5F5F5F5F5F5F5F5E2E2E2E2E2E2E2F5F5F5E2F5F5E2F5F5F5F5F5F5F5F5F5F5F5F5F5F5F5F5F5F5F5F5F5F5F5F5
310
F5F5F5F5F5F5F5F5F5F5F5F5E2F5F5F5F5F5E2E2EFE2F5F5F5F5F5E2F5F5F5F5F5F5F5F5F5F5F5E2F5E2E2F5F5E2E2E2E2E2E2E2E2E2E2E2E2E2E2E2E2E2E2E2E2E2E2E2E2E2E2E2E2E2E2E2F5F5E2E2F5E2F5F5F5F5F5F5F5F5F5F5F5F5F5F5F5F5F5E2F5F5F5F5F5F5F5F5F5F5F5F5F5F5F5F5F5F5F5E2E2F5F5F5F5F5F5
310
F5F5F5F5E2F5F5F5F5F5F5F5E2F5F5E2F5F5F5E2F5E2E2F5F5F5E2F5F5F5F5F5F5F5F5F5F5F5F5F5F5F5F5F5F5F5F5F5E2F5F5F5F5F5E2E2F5F5E2F5F5F5F5F5F5F5F5F5F5F5F5F5F5F5F5F5F5F5F5F5F5F5F5F5F5F5F5F5F5F5F5F5F5E2E2F5F5E2E2F5F5F5E2F5E2F5F5F5F5F5F5F5F5F5F5F5F5F5F5F5F5F5F5F5F5F5F5
310
F5F5F5F5F5F5F5F5F5F5F5F5F5F5E2F5F5F5F5F5E2E2EFE2F5F5F5F5F5E2F5F5F5F5F5F5F5F5F5F5F5E2F5E2E2F5F5E2E2E2E2E2E2E2E2E2E2E2E2E2E2E2E2E2E2E2E2E2E2E2E2E2E2E2E2E2E2E2F5F5E2E2F5E2F5F5F5F5F5F5F5F5F5F5F5F5F5F5F5F5F5E2F5F5F5F5F5F5F5F5F5F5F5F5F5F5F5F5F5F5F5E2E2F5F5F5F5
310
F5F5F5F5F5F5E2F5F5F5F5F5F5F5E2F5E2F5F5F5F5E2F5E2E2F5F5F5E2F5F5F5F5F5F5F5F5F5F5F5F5F5F5F5F5F5F5F5F5F5E2F5F5F5F5F5E2E2F5F5E2F5F5F5F5F5F5F5F5F5F5F5F5F5F5F5F5F5F5F5F5F5F5F5F5F5F5F5F5F5F5F5F5F5F5E2E2F5F5E2E2F5F5F5E2F5E2F5F5F5F5F5F5F5F5F5F5F5F5F5F5F5F5F5F5F5F5
310
F5F5F5F5F5F5F5F5F5F5F5F5F5F5F5F5E2F5F5F5F5F5E2E2EFE2F5F5F5F5F5E2F5F5F5F5F5F5F5F5F5F5F5E2F5E2E2F5F5E2F5E2E2F5E2E2F5F5E2F5F5E2F5F5E2F5F5E2F5F5E2F5F5E2E2F5E2E2F5E2F5F5E2E2F5E2F5F5F5F5F5F5F5F5F5F5F5F5F5F5F5F5F5E2F5F5F5F5F5F5F5F5F5F5F5F5F5F5F5F5F5F5F5E2E2F5F5
310
F5F5F5F5F5F5F5F5E2F5F5F5F5F5F5F5E2F5F5E2E2F5F5E2F5E2E2F5F5F5E2F5F5F5F5F5F5F5F5F5F5F5F5F5F5F5F5F5F5F5F5F5E2F5F5F5F5F5E2E2F5F5E2F5F5F5F5F5F5F5F5F5F5F5F5F5F5F5F5F5F5F5F5F5F5F5F5F5F5F5F5F5F5F5F5F5F5E2E2F5F5E2E2F5F5F5F5E2E2F5F5F5F5F5F5F5F5F5F5F5F5F5F5F5F5F5F5
310
F5F5F5F5F5F5F5F5F5F5F5F5F5F5F5F5F5F5E2F5F5F5F5F5E2E2EFE2F5F5F5F5F5E2F5F5F5F5F5F5F5F5F5F5F5E2F5E2E2F5F5E2E2E2E2E2E2E2E2E2E2E2E2E2E2E2E2E2E2E2E2E2E2E2E2E2E2E2E2E2E2E2F5F5E2E2F5E2F5F5F5F5F5F5F5F5F5F5F5F5F5F5F5F5F5E2F5F5F5F5F5F5F5F5F5F5F5F5F5F5F5F5F5F5F5E2E2
310
F5F5F5F5F5F5F5F5F5F5E2F5F5F5F5F5F5F5E2F5F5E2E2E2E2F5E2F5E2F5F5F5E2F5F5F5F5F5F5F5F5F5F5F5F5F5F5F5F5F5F5F5F5F5E2F5F5F5F5F5E2E2F5F5E2F5F5F5F5F5F5F5F5F5F5F5F5F5F5F5F5F5F5F5F5F5F5F5F5F5F5F5F5F5F5F5F5F5F5E2E2F5F5E2E2F5F5F5F5E2E2F5F5F5F5F5F5F5F5F5F5F5F5F5F5F5F5
310
F5F5F5F5F5F5F5F5F5F5F5F5F5F5F5F5F5F5F5F5E2F5F5F5F5F5E2E2EFE2F5F5F5F5F5E2F5F5F5F5F5F5F5F5F5F5F5E2F5E2E2F5F5E2E2E2E2E2E2E2E2E2E2E2E2E2E2E2E2E2E2E2E2E2E2E2E2E2E2E2E2E2E2E2F5F5E2E2F5E2F5F5F5F5F5F5F5F5F5F5F5F5F5F5F5F5F5E2F5F5F5F5F5F5F5F5F5F5F5F5F5F5F5F5F5F5F5
310
E2E2F5F5F5F5F5F5F5F5F5F5E2F5F5F5F5F5F5F5F5E2F5F5E2F5F5F5E2F5E2F5F5F5E2F5F5F5F5F5F5F5F5F5F5F5F5F5F5F5F5F5F5F5F5F5E2F5F5F5F5F5E2E2F5F5E2F5F5F5F5F5F5F5F5F5F5F5F5F5F5F5F5F5F5F5F5F5F5F5F5F5F5F5F5F5F5F5F5F5F5E2E2F5F5E2E2F5F5F5F5E2E2F5F5F5F5F5F5F5F5F5F5F5F5F5F5
310
F5F5F5F5F5F5F5F5F5F5F5F5F5F5F5F5F5F5F5F5F5F5E2F5F5F5F5F5E2E2EFE2F5F5F5F5F5E2F5F5F5F5F5F5F5F5F5F5F5E2F5E2E2F5F5E2F5E2E2F5E2E2F5F5E2F5F5E2F5F5E2F5F5E2F5F5E2F5F5E2F5F5E2E2F5E2F5F5E2E2F5E2F5F5F5F5F5F5F5F5F5F5F5F5F5F5F5F5F5E2F5F5F5F5F5F5F5F5F5F5F5F5F5F5F5F5F5
310
F5F5E2E2F5F5F5F5F5F5F5F5F5F5E2F5F5F5F5F5F5F5F5F5E2F5E2F5E2E2F5E2F5F5F5F5E2F5F5F5F5F5F5F5F5F5F5F5F5F5F5F5F5F5F5F5F5F5E2F5F5F5F5F5E2E2F5F5E2F5F5F5F5F5F5F5F5F5F5F5F5F5F5F5F5F5F5F5F5F5F5F5F5F5F5F5F5F5F5F5F5F5F5E2E2F5F5E2E2F5F5F5F5F5E2F5F5F5F5F5F5F5F5F5F5F5F5
310
F5F5F5F5F5F5F5F5F5F5F5F5F5F5F5F5F5F5F5F5F5F5F5F5E2F5F5F5F5F5E2E2EFE2F5F5F5F5F5E2F5F5F5F5F5F5F5F5F5F5F5E2F5E2E2F5F5E2E2E2E2E2E2E2E2E2E2E2E2E2E2E2E2E2E2E2E2E2E2E2E2E2E2E2E2E2E2E2F5F5E2E2F5E2F5F5F5F5F5F5F5F5F5F5F5F5F5F5F5F5F5E2F5F5F5F5F5F5F5F5F5F5F5F5F5F5F5
310
F5F5F5F5E2E2F5F5F5F5F5F5F5F5F5F5E2F5F5F5F5F5F5F5F5F5F5E2E2E2F5F5E2F5F5F5F5F5E2F5F5F5F5F5F5F5F5F5F5F5F5F5F5F5F5F5F5F5F5F5E2F5F5F5F5F5E2E2F5F5E2F5F5F5F5F5F5F5F5F5F5F5F5F5F5F5F5F5F5F5F5F5F5F5F5F5F5F5F5F5F5F5F5F5F5E2E2F5F5E2E2F5F5F5F5F5E2F5F5F5F5F5F5F5F5F5F5
310
F5F5F5F5F5F5F5F5F5F5F5F5F5F5F5F5F5F5F5F5F5F5F5F5F5F5E2F5F5F5F5F5E2E2EFE2F5F5F5F5F5E2F5F5F5F5F5F5F5F5F5F5F5E2F5E2E2F5F5E2E2E2F5F5F5F5F5F5F5F5F5F5F5F5F5F5F5F5F5F5F5F5F5F5F5F5F5E2E2E2F5F5E2E2F5E2F5F5F5F5F5F5F5F5F5F5F5F5F5F5F5F5F5E2F5F5F5F5F5F5F5F5F5F5F5F5F5
310
F5F5F5F5F5F5E2E2F5F5F5F5F5F5F5F5F5F5E2F5F5E2E2E2E2E2E2E2E2E2E2E2E2E2F5F5F5F5F5F5E2F5F5F5F5F5F5F5F5F5F5F5F5F5F5F5F5F5F5F5F5F5E2F5F5F5F5F5E2E2E2E2E2F5F5F5F5F5F5F5F5F5F5F5F5F5F5F5F5F5F5F5F5F5F5F5F5F5F5F5F5F5F5F5F5F5F5E2E2E2E2E2E2F5F5F5F5F5E2E2F5F5F5F5F5F5F5
310
F5F5F5F5F5F5F5F5F5F5F5F5F5F5F5F5F5F5F5F5F5F5F5F5F5F5F5F5E2F5F5F5F5F5E2E2EFE2F5F5F5F5F5E2F5F5F5F5F5F5F5F5F5F5F5E2F5E2E2F5E2E2F5E2E2E2E2E2E2E2E2E2E2E2E2E2E2E2E2E2E2E2E2E2E2E2E2E2E2E2E2E2E2F5E2E2F5E2F5F5F5F5F5F5F5F5F5F5F5F5F5F5F5F5F5E2F5F5F5F5F5F5F5F5F5F5F5
310
F5F5F5F5F5F5F5F5E2E2F5F5F5F5F5F5F5F5F5F5E2F5F5E2F5F5F5F5F5F5F5F5E2F5F5F5F5F5F5F5F5F5E2F5F5F5F5F5F5F5F5F5F5F5F5F5F5F5F5F5F5F5F5F5E2F5F5F5F5F5E2E2F5F5E2F5F5F5F5F5F5F5F5F5F5F5F5F5F5F5F5F5F5F5F5F5F5F5F5F5F5F5F5F5F5F5F5F5F5E2E2F5F5E2E2F5F5F5F5F5E2E2F5F5F5F5F5
310
F5E2E2E2F5F5F5E2F5E2E2E2E2E2E2E2F5F5F5F5F5F5F5F5F5F5F5F5F5F5E2F5F5F5F5F5E2E2EFE2F5F5F5F5F5E2F5F5F5F5F5F5F5F5F5F5F5E2F5E2E2E2E2E2E2E2E2E2E2E2E2E2E2E2E2E2E2E2E2E2E2E2E2E2E2E2E2E2E2E2E2E2E2E2E2E2E2E2F5E2F5F5F5F5F5F5F5F5F5F5F5F5F5F5F5F5F5E2F5F5F5F5F5F5F5F5F5
310
F5F5F5F5F5F5F5F5F5F5E2E2F5F5F5F5F5F5F5F5F5F5E2F5F5E2F5F5F5F5F5F5F5F5E2F5F5F5F5F5F5F5F5F5E2F5F5F5F5F5F5F5F5F5F5F5F5F5F5F5F5F5F5F5F5F5E2F5F5F5F5F5E2E2F5F5E2F5F5F5F5F5F5F5F5F5F5F5F5F5F5F5F5F5F5F5F5F5F5F5F5F5F5F5F5F5F5F5F5F5F5E2E2F5F5E2E2F5F5F5F5F5E2F5E2F5F5
310
F5F5E2E2E2E2F5F5E2E2E2E2E2F5F5E2E2E2E2F5F5F5F5F5F5F5F5F5F5F5F5F5E2F5F5F5F5F5E2E2EFE2F5F5F5F5F5E2F5F5F5F5F5F5F5F5F5F5F5E2F5E2E2E2E2E2E2F5F5F5F5F5F5F5F5F5F5F5F5F5F5F5F5F5F5F5F5F5F5F5F5F5F5F5E2E2E2E2E2E2F5E2F5F5F5F5F5F5F5F5F5F5F5F5F5F5F5F5F5E2F5F5F5F5F5F5F5
310
F5F5F5F5F5F5F5F5F5F5F5F5E2E2F5F5F5F5F5F5F5F5F5F5E2F5F5E2F5F5F5F5F5F5F5F5E2F5F5F5F5F5F5F5F5F5E2F5F5F5F5F5F5F5F5F5F5F5F5F5F5F5F5F5F5F5F5F5E2F5F5F5F5F5E2E2F5F5E2F5F5F5F5F5F5F5F5F5F5F5F5F5F5F5F5F5F5F5F5F5F5F5F5F5F5F5F5F5F5F5F5F5F5E2E2F5F5E2E2F5F5F5F5F5E2F5E2
310
E2E2E2F5F5E2E2E2F5F5F5E2E2E2E2F5E2E2E2E2F5F5F5F5F5F5F5F5F5F5F5F5F5F5E2F5F5F5F5F5E2E2EFE2F5F5F5F5F5E2F5F5F5F5F5F5F5F5F5F5F5E2F5E2E2E2E2E2F5F5F5F5F5F5F5F5F5F5F5F5F5F5F5F5F5F5F5F5F5F5F5F5F5F5F5F5F5E2E2E2E2E2F5E2F5F5F5F5F5F5F5F5F5F5F5F5F5F5F5F5F5E2F5F5F5F5F5
310
F5F5F5F5F5F5F5F5F5F5F5F5F5F5E2E2F5F5F5F5F5F5F5F5F5F5E2F5F5E2F5F5F5F5F5F5F5F5E2F5F5F5F5F5F5F5F5F5E2F5F5F5F5F5F5F5F5F5F5F5F5F5F5F5F5F5F5F5F5F5E2F5F5F5F5F5E2E2F5F5E2E2F5F5F5F5F5F5F5F5F5F5F5F5F5F5F5F5F5F5F5F5F5F5F5F5F5F5F5F5F5F5F5F5F5E2E2F5F5E2E2F5F5F5F5F5E2
310
F5F5F5F5F5F5F5E2E2E2F5F5F5F5F5E2F5F5E2E2F5E2F5F5F5F5F5F5F5F5F5F5F5F5F5F5E2F5F5F5F5F5E2E2EFE2F5F5F5F5F5E2F5F5F5F5F5F5F5F5F5F5F5E2F5E2F5E2E2F5F5F5F5F5F5F5F5F5F5F5F5F5F5F5F5F5F5F5F5F5F5F5F5F5F5F5F5F5F5F5E2E2E2E2F5E2F5F5F5F5F5F5F5F5F5F5F5F5F5F5F5F5F5E2F5F5F5
310
F5F5F5F5F5F5F5F5F5F5F5F5F5F5F5F5E2E2F5F5F5F5F5F5F5F5F5F5E2F5F5E2E2E2E2E2E2E2E2E2E2E2E2E2E2E2E2E2E2E2E2F5F5F5F5F5F5F5F5F5F5F5F5F5F5F5F5F5F5F5F5F5E2F5F5F5F5F5E2E2F5F5E2E2E2E2E2E2E2E2E2E2E2E2E2E2E2E2E2E2E2E2E2E2E2E2E2E2E2E2E2E2E2E2E2E2E2E2F5F5F5E2E2F5F5F5F5
310
F5E2F5F5F5F5F5F5F5F5F5F5F5F5F5F5F5F5F5F5F5F5F5F5F5F5F5F5F5F5F5F5F5F5F5F5F5F5E2F5F5F5F5F5E2E2EFE2F5F5F5F5F5E2F5F5F5F5F5F5F5F5F5F5F5E2E2F5E2E2E2E2E2E2E2E2E2E2E2E2E2E2E2E2E2E2E2E2E2E2E2E2E2E2E2E2E2E2E2E2E2E2E2E2E2F5E2E2F5F5F5F5F5F5F5F5F5F5F5F5F5F5F5F5E2E2F5
310
F5F5F5F5F5F5F5F5F5F5F5F5F5F5F5F5F5F5E2E2E2E2E2E2E2E2E2E2E2E2E2F5F5E2F5F5F5F5F5F5F5F5E2F5F5F5F5F5F5F5F5F5E2F5F5F5F5F5F5F5F5F5F5F5F5F5F5F5F5F5F5F5F5F5E2F5F5F5F5F5E2F5E2F5F5F5F5F5F5F5F5F5F5F5F5F5F5F5F5F5F5F5F5F5F5F5F5F5F5F5F5F5F5F5F5F5F5F5F5F5F5F5E2F5E2F5F5
310
F5F5F5E2F5F5F5F5F5F5F5F5F5F5F5F5F5F5F5F5F5F5F5F5F5F5F5F5F5F5F5F5F5F5F5F5F5F5F5F5E2F5F5F5F5F5E2E2EFE2F5F5F5F5F5E2F5F5F5F5F5F5F5F5F5F5F5E2E2F5F5F5F5F5F5F5F5F5F5F5F5F5F5F5F5F5F5F5F5F5F5F5F5F5F5F5F5F5F5F5F5F5F5F5F5F5F5E2F5E2F5F5F5F5F5F5F5F5F5F5F5F5F5F5F5F5F5
310
E2F5F5F5F5F5F5F5F5F5F5F5F5F5F5F5F5F5F5F5F5F5F5F5F5F5F5F5F5F5F5F5E2F5F5E2F5F5F5F5F5F5F5F5E2F5F5F5F5F5F5F5F5F5E2F5F5F5F5F5F5F5F5F5F5F5F5F5F5F5F5F5F5F5F5F5E2F5F5F5F5F5E2F5E2F5F5F5F5F5F5F5F5F5F5F5F5F5F5F5F5F5F5F5F5F5F5F5F5F5F5F5F5F5F5F5F5F5F5F5F5F5F5E2F5F5E2
310
F5F5F5F5F5E2F5F5F5F5F5F5F5F5F5F5F5F5F5F5F5F5F5F5F5F5F5F5F5F5F5F5F5F5F5F5F5F5F5F5F5F5E2F5F5F5F5F5E2E2EFE2F5F5F5F5F5E2F5F5F5F5F5F5F5F5F5F5F5E2F5E2E2E2E2E2E2E2E2E2E2E2E2E2E2E2E2E2E2E2E2E2E2E2E2E2E2E2E2E2E2E2E2E2E2E2E2E2E2E2E2E2E2E2E2E2E2E2E2E2E2E2E2E2E2E2E2
310
E2E2E2E2F5F5F5F5F5F5F5F5F5F5F5F5F5F5F5F5F5F5F5F5F5F5F5F5F5F5F5F5F5F5E2E2E2E2F5F5F5F5F5F5F5F5E2F5F5F5F5F5F5F5F5F5E2F5F5F5F5F5F5F5F5F5F5F5F5F5F5F5F5F5F5F5F5F5E2F5F5F5F5F5E2F5F5E2E2E2E2E2E2E2E2E2E2E2E2E2E2E2E2E2E2E2E2E2E2E2E2E2E2E2E2E2E2E2E2E2E2E2E2E2E2F5F5
310
F5E2F5F5F5F5F5E2F5F5F5F5F5F5F5F5F5F5F5F5F5F5F5F5F5F5F5F5F5F5F5F5F5F5F5F5F5F5F5F5F5F5F5F5E2F5F5F5F5F5E2E2EFE2F5F5F5F5F5E2F5F5F5F5F5F5F5F5F5F5F5E2F5F5F5F5F5F5F5F5F5F5F5F5F5F5F5F5F5F5F5F5F5F5F5F5F5F5F5F5F5F5F5F5F5F5F5F5F5F5F5F5F5E2F5F5F5F5F5F5F5F5F5F5F5F5F5
310
F5F5F5F5F5F5F5F5F5F5F5F5F5F5F5F5F5F5F5F5F5F5F5F5F5F5F5F5F5F5F5F5F5F5F5F5F5F5F5F5F5F5F5F5F5F5F5F5E2F5F5F5F5F5F5F5F5F5E2F5F5F5F5F5F5F5F5F5F5F5F5F5F5F5F5F5F5F5F5F5E2F5F5F5F5F5E2F5F5F5F5F5F5F5F5F5F5F5F5F5F5F5F5F5F5F5F5F5F5F5F5F5F5F5F5F5F5F5F5F5F5F5F5F5F5F5F5
310
F5F5F5E2F5F5F5F5F5E2F5F5F5F5F5F5F5F5F5F5F5F5F5F5F5F5F5F5F5F5F5F5F5F5F5F5F5F5F5F5F5F5F5F5F5F5E2F5F5F5F5F5E2E2EFE2F5F5F5F5F5E2F5F5F5F5F5F5F5F5F5F5F5E2F5F5F5F5F5F5F5F5F5F5F5F5F5F5F5F5F5F5F5F5F5F5F5F5F5F5F5F5F5F5F5F5F5F5F5F5F5F5F5F5F5E2F5F5F5F5F5F5F5F5F5F5F5
310
F5F5F5F5F5F5F5F5F5F5F5F5F5F5F5F5F5F5F5F5F5F5F5F5F5F5F5F5F5F5F5F5F5F5F5F5F5F5F5F5F5F5F5F5F5F5F5F5F5F5E2F5F5F5F5F5F5F5F5F5E2F5F5F5F5F5F5F5F5F5F5F5F5F5F5F5F5F5F5F5F5F5E2F5F5F5F5F5E2F5F5F5F5F5F5F5F5F5F5F5F5F5F5F5F5F5F5F5F5F5F5F5F5F5F5F5F5F5F5F5F5F5F5F5F5F5F5
310
F5F5F5F5F5E2F5F5F5F5F5E2F5F5F5F5F5F5F5F5F5F5F5F5F5F5F5F5F5F5F5F5F5F5F5F5F5F5F5F5F5F5F5F5F5F5F5F5E2F5F5F5F5F5E2E2EFE2F5F5F5F5F5E2F5F5F5F5F5F5F5F5F5F5F5E2F5F5F5F5F5F5F5F5F5F5F5F5F5F5F5F5F5F5F5F5F5F5F5F5F5F5F5F5F5F5F5F5F5F5F5F5F5F5F5F5F5E2F5F5F5F5F5F5F5F5F5
310
F5F5F5F5F5F5F5F5F5F5F5F5F5F5F5F5F5F5F5F5F5F5F5F5F5F5F5F5F5F5F5F5F5F5F5F5F5F5F5F5F5F5F5F5F5F5F5F5F5F5F5F5E2F5F5F5F5F5F5F5F5F5E2F5F5F5F5F5F5F5F5F5F5F5F5F5F5F5F5F5F5F5F5F5E2F5F5F5F5F5E2F5F5F5F5F5F5F5F5F5F5F5F5F5F5F5F5F5F5F5F5F5F5F5F5F5F5F5F5F5F5F5F5F5F5F5F5
310
F5F5F5F5F5F5F5E2F5F5F5F5F5E2F5F5F5F5F5F5F5F5F5F5F5F5F5F5F5F5F5F5F5F5F5F5F5F5F5F5F5F5F5F5F5F5F5F5F5F5E2F5F5F5F5F5E2E2EFE2F5F5F5F5F5E2F5F5F5F5F5F5F5F5F5F5F5E2F5F5F5F5F5F5F5F5F5F5F5F5F5F5F5F5F5F5F5F5F5F5F5F5F5F5F5F5F5F5F5F5F5F5F5F5F5F5F5F5F5E2F5F5F5F5F5F5F5
310
F5F5F5F5F5F5F5F5F5F5F5F5F5F5F5F5F5F5F5F5F5F5F5F5F5F5F5F5F5F5F5F5F5F5F5F5F5F5F5F5F5F5F5F5F5F5F5F5F5F5F5F5F5F5E2F5F5F5F5F5F5F5F5F5E2F5F5F5F5F5F5F5F5F5F5F5F5F5F5F5F5F5F5F5F5F5E2F5F5F5F5F5E2F5F5F5F5F5F5F5F5F5F5F5F5F5F5F5F5F5F5F5F5F5F5F5F5F5F5F5F5F5F5F5F5F5F5
310
F5F5F5F5F5F5F5F5F5E2F5F5F5F5F5E2F5F5F5F5F5F5F5F5F5F5F5F5F5F5F5F5F5F5F5F5F5F5F5F5F5F5F5F5F5F5F5F5F5F5F5F5E2F5F5F5F5F5E2E2EFE2F5F5F5F5F5E2F5F5F5F5F5F5F5F5F5F5F5E2F5F5F5F5F5F5F5F5F5F5F5F5F5F5F5F5F5F5F5F5F5F5F5F5F5F5F5F5F5F5F5F5F5F5F5F5F5F5F5F5F5E2F5F5F5F5F5
310
F5F5F5F5F5F5F5F5F5F5F5F5F5F5F5F5F5F5F5F5F5F5F5F5F5F5F5F5F5F5F5F5F5F5F5F5F5F5F5F5F5F5F5F5F5F5F5F5F5F5F5F5F5F5F5F5E2F5F5F5F5F5F5F5F5F5E2F5F5F5F5F5F5F5F5F5F5F5F5F5F5F5F5F5F5F5F5F5E2F5F5F5F5F5E2F5F5F5F5F5F5F5F5F5F5F5F5F5F5F5F5F5F5F5F5F5F5F5F5F5F5F5F5F5F5F5F5
310
F5F5F5F5F5F5F5F5F5F5F5E2F5F5F5F5F5E2F5F5F5F5F5F5F5F5F5F5F5F5F5F5F5F5F5F5F5F5F5F5F5F5F5F5F5F5F5F5F5F5F5F5F5F5E2F5F5F5F5F5E2E2EFE2F5F5F5F5F5E2F5F5F5F5F5F5F5F5F5F5F5E2F5F5F5F5F5F5F5F5F5F5F5F5F5F5F5F5F5F5F5F5F5F5F5F5F5F5F5F5F5F5F5F5F5F5F5F5F5F5F5F5F5E2F5F5F5
310
F5F5F5F5F5F5F5F5F5F5F5F5F5F5F5F5F5F5F5F5F5F5F5F5F5F5F5F5F5F5F5F5F5F5F5F5F5F5F5F5F5F5F5F5F5F5F5F5F5F5F5F5F5F5F5F5F5F5E2F5F5F5F5F5F5F5F5F5E2F5F5F5F5F5F5F5F5F5F5F5F5F5F5F5F5F5F5F5F5F5E2F5F5F5F5F5E2F5F5F5F5F5F5F5F5F5F5F5F5F5F5F5F5F5F5F5F5F5F5F5F5F5F5F5F5F5F5
310
F5F5F5F5F5F5F5F5F5F5F5F5F5E2F5F5F5F5F5E2F5F5F5F5F5F5F5F5F5F5F5F5F5F5F5F5F5F5F5F5F5F5F5F5F5F5F5F5F5F5F5F5F5F5F5F5E2F5F5F5F5F5E2E2EFE2F5F5F5F5F5E2F5F5F5F5F5F5F5F5F5F5F5E2F5F5F5F5F5F5F5F5F5F5F5F5F5F5F5F5F5F5E2E2E2E2E2E2F5F5F5F5F5F5F5F5F5F5F5F5F5F5F5F5F5E2F5
310
F5F5F5F5F5F5F5F5F5F5F5F5F5F5F5F5F5F5F5F5F5F5F5F5F5F5F5F5F5F5F5F5F5F5F5F5F5F5F5F5F5F5F5F5F5F5F5F5F5F5F5F5F5F5F5F5F5F5F5F5E2F5E2F5E2E2E2E2E2E2E2F5F5F5F5F5F5F5F5F5F5F5F5F5F5F5F5F5F5F5F5F5E2F5F5F5F5F5E2F5E2F5F5F5F5F5F5F5F5F5F5F5F5F5F5F5E2E2E2E2F5E2E2F5F5F5F5
310
F5F5F5F5F5F5F5F5F5F5F5F5E2E2F5E2F5F5F5F5F5E2F5F5F5F5F5F5F5F5F5F5F5F5F5F5F5F5F5F5F5F5F5F5F5F5F5F5F5F5F5F5F5F5F5F5F5F5E2F5F5F5F5F5E2E2EFE2F5F5F5F5F5E2F5F5F5F5F5F5F5F5F5F5F5E2E2E2E2E2E2E2E2E2E2E2E2E2E2E2E2E2E2E2E2F5E2E2E2E2E2E2E2E2E2E2E2E2E2E2E2E2E2E2E2E2E2
310
E2F5F5F5F5F5F5F5F5F5F5F5F5F5F5F5F5F5F5F5F5F5F5F5F5F5F5F5F5F5F5F5F5F5F5F5F5F5F5F5F5F5F5F5F5F5F5F5F5F5F5F5F5F5F5F5F5E2E2E2E2E2E2F5E2F5F5E2E2E2E2E2E2E2E2E2E2E2E2F5F5F5F5F5F5F5F5F5F5F5F5F5F5F5E2F5F5F5F5F5E2E2E2E2E2E2E2E2E2E2E2E2E2E2E2E2F5E2E2E2F5F5E2E2E2F5E2
310
E2E2E2E2E2E2E2E2E2E2E2E2E2E2E2E2E2E2F5F5F5F5F5E2F5F5F5F5F5F5F5F5F5F5F5F5F5F5F5F5F5F5F5F5F5F5F5F5F5F5F5F5F5F5F5F5F5F5F5F5E2F5F5F5F5F5E2E2EFE2F5F5F5F5F5E2F5F5F5F5F5F5F5F5F5F5F5E2F5E2E2F5F5F5F5F5F5F5F5F5F5F5F5F5F5E2E2F5E2E2E2E2F5F5F5F5F5F5F5F5F5F5F5F5F5F5E2
310
E2F5E2F5F5F5F5F5F5F5F5F5F5F5F5F5F5F5F5F5F5F5F5F5F5F5F5F5F5F5F5F5F5F5F5F5F5F5F5F5F5F5F5F5F5F5F5F5F5F5F5F5F5F5F5F5F5F5F5F5F5F5E2E2E2F5E2F5F5E2E2E2E2E2E2F5E2E2F5F5F5F5F5F5F5F5F5F5F5F5F5F5F5F5F5F5E2F5F5F5F5F5E2F5F5F5F5F5F5F5F5F5F5F5F5F5F5F5F5F5E2F5E2E2E2E2E2
310
F5F5F5F5F5F5F5F5F5F5F5F5F5F5F5F5F5F5F5E2F5F5F5F5F5E2F5F5F5F5F5F5F5F5F5F5F5F5F5F5F5F5F5F5F5F5F5F5F5F5F5F5F5F5F5F5F5F5F5F5F5F5E2F5F5F5F5F5E2E2EFE2F5F5F5F5F5E2F5F5F5F5F5F5F5F5F5F5F5F5F5F5F5F5F5F5F5F5F5F5F5F5F5F5F5F5F5F5F5F5F5F5F5F5F5F5F5F5F5F5F5F5F5F5F5F5F5
310
F5F5F5F5F5F5F5F5F5F5F5F5F5F5F5F5F5F5F5F5F5F5F5F5F5F5F5F5F5F5F5F5F5F5F5F5F5F5F5F5F5F5F5F5F5F5F5F5F5F5F5F5F5F5F5F5F5F5F5F5F5F5F5F5F5F5F5F5F5F5F5F5F5F5F5F5F5F5F5F5F5F5F5F5F5F5F5F5F5F5F5F5F5F5F5F5F5F5E2F5F5F5F5F5F5F5F5F5F5F5F5F5F5F5F5F5F5F5F5F5F5F5F5F5F5F5F5
310
F5F5F5F5F5F5F5F5F5F5F5F5F5F5F5F5F5F5F5F5F5F5F5F5F5F5F5E2F5F5F5F5F5F5F5F5F5F5F5F5F5F5F5F5F5F5F5F5F5F5F5F5F5F5F5F5F5F5F5F5F5F5F5F5E2F5F5F5F5F5E2E2EFE2F5F5F5F5F5E2F5F5F5F5F5F5F5F5F5F5F5F5F5F5F5F5F5F5F5F5F5F5F5F5F5F5F5F5F5F5F5F5F5F5F5F5F5F5F5F5F5F5F5F5F5F5F5
310
F5F5F5F5F5F5F5F5F5F5F5F5F5F5F5F5F5F5F5F5F5F5F5F5F5F5F5F5F5F5F5F5F5F5F5F5F5F5F5F5F5F5F5F5F5F5F5F5F5F5F5F5F5F5F5F5F5F5F5F5F5F5F5F5F5F5F5F5F5F5F5F5F5F5F5F5F5F5F5F5F5F5F5F5F5F5F5F5F5F5F5F5F5F5F5F5F5F5F5F5E2F5F5F5F5F5F5F5F5F5F5F5F5F5F5F5F5F5F5F5F5F5F5F5F5F5F5
310
F5F5F5F5F5F5F5F5F5F5F5F5F5F5F5F5F5F5F5F5F5F5F5F5F5F5F5F5F5E2F5F5F5F5F5F5F5F5F5F5F5F5F5F5F5F5F5F5F5F5F5F5F5F5F5F5F5F5F5F5F5F5F5F5F5F5E2F5F5F5F5F5E2E2EFE2F5F5F5F5F5E2F5F5F5F5F5F5F5F5F5F5F5F5F5F5F5F5F5F5F5F5F5F5F5F5F5F5F5F5F5F5F5F5F5F5F5F5F5F5F5F5F5F5F5F5F5
310
F5F5F5F5F5F5F5F5F5F5F5F5F5F5F5F5F5F5F5F5F5F5F5F5F5F5F5F5F5F5F5F5F5F5F5F5F5F5F5F5F5F5F5F5F5F5F5F5F5F5F5F5F5F5F5F5F5F5F5F5F5F5F5F5F5F5F5F5F5F5F5F5F5F5F5F5F5F5F5F5F5F5F5F5F5F5F5F5F5F5F5F5F5F5F5F5F5F5F5F5F5F5E2F5F5F5F5F5F5F5F5F5F5F5F5F5F5F5F5F5F5F5F5F5F5F5F5
310
F5F5F5F5F5F5F5F5F5F5F5F5F5F5F5F5F5F5F5F5F5F5F5F5F5F5F5F5F5F5F5E2F5F5F5F5F5F5F5F5F5F5F5F5F5F5F5F5F5F5F5F5F5F5F5F5F5F5F5F5F5F5F5F5F5F5F5F5E2F5F5F5F5F5E2E2EFE2F5F5F5F5F5E2F5F5F5F5F5F5F5F5F5F5F5F5F5F5F5F5F5F5F5F5F5F5F5F5F5F5F5F5F5F5F5F5F5F5F5F5F5F5F5F5F5F5F5
310
F5F5F5F5F5F5F5F5F5F5F5F5F5F5F5F5F5F5F5F5F5F5F5F5F5F5F5F5F5F5F5F5F5F5F5F5F5F5F5F5F5F5F5F5F5F5F5F5F5F5F5F5F5F5F5F5F5F5F5F5F5F5F5F5F5F5F5F5F5F5F5F5F5F5F5F5F5F5F5F5F5F5F5F5F5F5F5F5F5F5F5F5F5F5F5F5F5F5F5F5F5F5F5F5E2F5F5F5F5F5F5F5F5F5F5F5F5F5F5F5F5F5F5F5F5F5F5
310
F5F5F5F5F5F5F5F5F5F5F5F5F5F5F5F5F5F5F5F5F5F5F5F5F5F5F5F5F5F5F5F5F5E2F5F5F5F5F5F5F5F5F5F5F5F5F5F5F5F5F5F5F5F5F5F5F5F5F5F5F5F5F5F5F5F5F5F5F5F5E2F5F5F5F5F5E2E2EFE2F5F5F5F5F5E2F5F5F5F5F5F5F5F5F5F5F5F5F5F5F5F5F5F5F5F5F5F5F5F5F5F5F5F5F5F5F5F5F5F5F5F5F5F5F5F5F5
310
F5F5F5F5F5F5F5F5F5F5F5F5F5F5F5F5F5F5F5F5F5F5F5F5F5F5F5F5F5F5F5F5F5F5F5F5F5F5F5F5F5F5F5F5F5F5F5F5F5F5F5F5F5F5F5F5F5F5F5F5F5F5F5F5F5F5F5F5F5F5F5F5F5F5F5F5F5F5F5F5F5F5F5F5F5F5F5F5F5F5F5F5F5F5F5F5F5F5F5F5F5F5F5F5F5F5E2F5F5F5F5F5F5F5F5F5F5F5E2E2E2E2E2E2E2E2F5
310
F5F5F5F5F5F5F5F5F5F5F5F5F5F5F5F5F5F5F5F5F5F5F5F5F5F5F5F5F5F5F5F5F5F5F5E2F5F5F5F5F5F5F5F5F5F5F5F5F5F5F5F5F5F5F5F5F5F5F5F5F5F5F5F5F5F5F5F5F5F5F5F5E2F5F5F5F5F5E2E2EFE2F5F5F5F5F5E2F5F5F5F5F5F5F5F5F5F5F5F5F5F5F5F5F5F5F5F5F5F5F5F5F5F5F5F5F5F5F5F5F5F5F5F5F5F5F5
310
F5F5F5F5F5F5F5F5F5F5F5F5F5F5F5F5F5F5F5F5F5F5F5F5F5F5F5F5F5F5F5F5F5F5F5F5F5F5F5F5F5F5F5F5F5F5F5F5F5F5F5F5F5F5F5F5F5F5F5F5F5F5F5F5F5F5F5F5F5F5F5F5F5F5F5F5F5F5F5F5F5F5F5F5F5F5F5F5F5F5F5F5F5F5F5F5F5F5F5F5F5F5F5F5F5F5F5F5E2E2E2E2E2E2E2E2E2E2E2E2E2E2E2E2F5E2E2
310
E2F5E2E2E2E2E2E2E2E2E2E2E2E2E2E2E2E2E2E2E2E2E2E2E2E2E2E2E2E2E2E2E2E2E2E2E2E2F5F5F5F5F5F5F5F5F5F5F5F5F5F5F5F5F5F5F5F5F5F5F5F5F5F5F5F5F5F5F5F5F5F5F5F5E2F5F5F5F5F5E2E2EFE2F5F5F5F5F5E2F5F5F5F5F5F5F5F5F5F5F5F5F5F5F5F5F5F5F5F5F5F5F5F5F5F5F5F5F5F5F5F5F5F5F5F5F5
310
F5F5F5F5F5F5F5F5F5F5F5F5F5F5F5F5F5F5F5F5F5F5F5F5F5F5F5F5F5F5F5F5F5F5F5F5F5F5F5F5F5F5F5F5F5F5F5F5F5F5F5F5F5F5F5F5F5F5F5F5F5F5F5F5F5F5F5F5F5F5F5F5F5F5F5F5F5F5F5F5F5F5F5F5F5F5F5F5F5F5F5F5F5F5F5F5F5F5F5F5F5F5F5F5F5F5F5F5F5F5E2F5E2E2F5F5F5F5F5F5F5F5E2E2F5E2F5
310
E2E2E2F5F5F5F5F5F5F5F5F5F5F5F5F5F5F5F5F5F5F5F5F5F5F5F5F5F5F5F5F5F5F5F5F5E2E2F5E2F5F5F5F5F5F5F5F5F5F5F5F5F5F5F5F5F5F5F5F5F5F5F5F5F5F5F5F5F5F5F5F5F5F5F5F5E2F5F5F5F5F5E2E2EFE2F5F5F5F5F5E2F5F5F5F5F5F5F5F5F5F5F5F5F5F5F5F5F5F5F5F5F5F5F5F5F5F5F5F5F5F5F5F5F5F5F5
310
F5F5F5F5F5F5F5F5F5F5F5F5F5F5F5F5F5F5F5F5F5F5F5F5F5F5F5F5F5F5F5F5F5F5F5F5F5F5F5F5F5F5F5F5F5F5F5F5F5F5F5F5F5F5F5F5F5F5F5F5F5F5F5F5F5F5F5F5F5F5F5F5F5F5F5F5F5F5F5F5F5F5F5F5F5F5F5F5F5F5F5F5F5F5F5F5F5F5F5F5F5F5F5F5F5F5F5F5F5F5F5F5F5F5F5F5F5F5F5F5F5F5F5F5E2E2F5
310
F5E2F5E2E2F5F5F5F5F5F5F5F5F5F5F5F5F5F5F5F5F5F5F5F5F5F5F5F5F5F5F5F5F5F5F5F5F5F5F5F5F5F5F5F5F5F5F5F5F5F5F5F5F5F5F5F5F5F5F5F5F5F5F5F5F5F5F5F5F5F5F5F5F5F5F5F5F5E2F5F5F5F5F5E2E2EFE2F5F5F5F5F5E2F5F5F5F5F5F5F5F5F5F5F5F5F5F5F5F5F5F5F5F5F5F5F5F5F5F5F5F5F5F5F5F5F5
310
F5F5F5F5F5F5F5F5F5F5F5F5F5F5F5F5F5F5F5F5F5F5F5F5F5F5F5F5F5F5F5F5F5F5F5F5F5F5F5F5F5F5F5F5F5F5F5F5F5F5F5F5F5F5F5F5F5F5F5F5F5F5F5F5F5F5F5F5F5F5F5F5F5F5F5F5F5F5F5F5F5F5F5F5F5F5F5F5F5F5F5F5F5F5F5F5F5F5F5F5F5F5F5F5F5F5F5F5F5F5F5F5F5F5F5F5F5F5F5F5F5F5F5F5F5F5F5
310
F5F5F5F5F5F5F5F5F5F5F5F5F5F5F5F5F5F5F5F5F5F5F5F5F5F5F5F5F5F5F5F5F5F5F5F5F5F5F5F5F5F5F5F5F5F5F5F5F5F5F5F5F5F5F5F5F5F5F5F5F5F5F5F5F5F5F5F5F5F5F5F5F5F5F5F5F5F5F5F5E2F5F5F5F5F5E2E2EFE2F5F5F5F5F5E2F5F5F5F5F5F5F5F5F5F5F5F5F5F5F5F5F5F5F5F5F5F5F5F5F5F5F5F5F5F5F5
310
F5F5F5F5F5F5F5F5F5F5F5F5F5F5F5F5F5F5F5F5F5F5F5F5F5F5F5F5F5F5F5F5F5F5F5F5F5F5F5F5F5F5F5F5F5F5F5F5F5F5F5F5F5F5F5F5F5F5F5F5F5F5F5F5F5F5F5F5F5F5F5F5F5F5F5F5F5F5F5F5F5F5F5F5F5F5F5F5F5F5F5F5F5F5F5F5F5F5F5F5F5F5F5F5F5F5F5F5F5F5F5F5F5F5F5F5F5F5F5F5F5F5F5F5F5F5F5
310
F5F5F5F5F5F5F5F5F5F5F5F5F5F5F5F5F5F5F5F5F5F5F5F5F5F5F5F5F5F5F5F5F5F5F5F5F5F5F5F5F5F5F5F5F5F5F5F5F5F5F5F5F5F5F5F5F5F5F5F5F5F5F5F5F5F5F5F5F5F5F5F5F5F5F5F5F5F5F5F5F5F5E2F5F5F5F5F5E2E2EFE2F5F5F5F5F5E2F5F5F5F5F5F5F5F5F5F5F5F5F5F5F5F5F5F5F5F5F5F5F5F5F5F5F5F5F5
310
F5F5F5F5F5F5F5F5F5F5F5F5F5F5F5F5F5F5F5F5F5F5F5F5F5F5F5F5F5F5F5F5F5F5F5F5F5F5F5F5F5F5F5F5F5F5F5F5F5F5F5F5F5F5F5F5F5F5F5F5F5F5F5F5F5F5F5F5F5F5F5F5F5F5F5F5F5F5F5F5F5F5F5F5F5F5F5F5F5F5F5F5F5F5F5F5F5F5F5F5F5F5F5F5F5F5F5F5F5F5F5F5F5F5F5F5F5F5F5F5F5F5F5F5F5F5F5
310
F5F5F5F5F5F5F5F5F5F5F5F5F5F5F5F5F5F5F5F5F5F5F5F5F5F5F5F5F5F5F5F5F5F5F5F5F5F5F5F5F5F5F5F5F5F5F5F5F5F5F5F5F5F5F5F5F5F5F5F5F5F5F5F5F5F5F5F5F5F5F5F5F5F5F5F5F5F5F5F5F5F5F5F5E2F5F5F5F5F5E2E2EFE2F5F5F5F5F5E2F5F5F5F5F5F5F5F5F5F5F5F5F5F5F5F5F5F5F5F5F5F5F5F5F5F5F5
310
F5F5F5F5F5F5F5F5F5F5F5F5F5F5F5F5F5F5F5F5F5F5F5F5F5F5F5F5F5F5F5F5F5F5F5F5F5F5F5F5F5F5F5F5F5F5F5F5F5F5F5F5F5F5F5F5F5F5F5F5F5F5F5F5F5F5F5F5F5F5F5F5F5F5F5F5F5F5F5F5F5F5F5F5F5F5F5F5F5F5F5F5F5F5F5F5F5F5F5F5F5F5F5F5F5F5F5F5F5F5F5F5F5F5F5F5F5F5F5F5F5F5F5F5F5F5F5
310
F5F5F5F5F5F5F5F5F5F5F5F5F5F5F5F5F5F5F5F5F5F5F5F5F5F5F5F5F5F5F5F5F5F5F5F5F5F5F5F5F5F5F5F5F5F5F5F5F5F5F5F5F5F5F5F5F5F5F5F5F5F5F5F5F5F5F5F5F5F5F5F5F5F5F5F5F5F5F5F5F5F5F5F5F5F5E2F5F5F5F5F5E2E2EFE2F5F5F5F5F5E2F5F5F5F5F5F5F5F5F5F5F5F5F5F5F5F5F5F5F5F5F5F5F5F5F5
310
F5F5F5F5F5F5F5F5F5F5F5F5F5F5F5F5F5F5F5F5F5F5F5F5F5F5F5F5F5F5F5F5F5F5F5F5F5F5F5F5F5F5F5F5F5F5F5F5F5F5F5F5F5F5F5F5F5F5F5F5F5F5F5F5F5F5F5F5F5F5F5F5F5F5F5F5F5F5F5F5F5F5F5F5F5F5F5F5F5F5F5F5F5F5F5F5F5F5F5F5F5F5F5F5F5F5F5F5F5F5F5F5F5F5F5F5F5F5F5F5F5F5F5F5F5F5F5
310
F5F5F5F5F5F5F5F5F5F5F5F5F5F5F5F5F5F5F5F5F5F5F5F5F5F5F5F5F5F5F5F5F5F5F5F5F5F5F5F5F5F5F5F5F5F5F5F5F5F5F5F5F5F5F5F5F5F5F5F5F5F5F5F5F5F5F5F5F5F5F5F5F5F5F5F5F5F5F5F5F5F5F5F5F5F5F5F5E2F5F5F5F5F5E2E2EFE2F5F5F5F5F5E2F5F5F5F5F5F5F5F5F5F5F5F5F5F5F5F5F5F5F5F5F5F5F5
310
F5F5F5F5F5F5F5F5F5F5F5F5F5F5F5F5F5F5F5F5F5F5F5F5F5F5F5F5F5F5F5F5F5F5F5F5F5F5F5F5F5F5F5F5F5F5F5F5F5F5F5F5F5F5F5F5F5F5F5F5F5F5F5F5F5F5F5F5F5F5F5F5F5F5F5F5F5F5F5F5F5F5F5F5F5F5F5F5F5F5F5F5F5F5F5F5F5F5F5F5F5F5F5F5F5F5F5F5F5F5F5F5F5F5F5F5F5F5F5F5F5F5F5F5F5F5F5
310
F5F5F5F5F5F5F5F5F5F5F5F5F5F5F5F5F5F5F5F5F5F5F5F5F5F5F5F5F5F5F5F5F5F5F5F5F5F5F5F5F5F5F5F5F5F5F5F5F5F5F5F5F5F5F5F5F5F5F5F5F5F5F5F5F5F5F5F5F5F5F5F5F5F5F5F5F5F5F5F5F5F5F5F5F5F5F5F5F5F5E2F5F5F5F5F5E2E2EFE2F5F5F5F5F5E2F5F5F5F5F5F5F5F5F5F5F5F5F5F5F5F5F5F5F5F5F5
310
F5F5F5F5F5F5F5F5F5F5F5F5F5F5F5F5F5F5F5F5F5F5F5F5F5F5F5F5F5F5F5F5F5F5F5F5F5F5F5F5F5F5F5F5F5F5F5F5F5F5F5F5F5F5F5F5F5F5F5F5F5F5F5F5F5F5F5F5F5F5F5F5F5F5F5F5F5F5F5F5F5F5F5F5F5F5F5F5F5F5F5F5F5F5F5F5F5F5F5F5F5F5F5F5F5F5F5F5F5F5F5F5F5F5F5F5F5F5F5F5F5F5F5F5F5F5F5
310
F5F5F5F5F5F5F5F5F5F5F5F5F5F5F5F5F5F5F5F5F5F5F5F5F5F5F5F5F5F5F5F5F5F5F5F5F5F5F5F5F5F5F5F5F5F5F5F5F5F5F5F5F5F5F5F5F5F5F5F5F5F5F5F5F5F5F5F5F5F5F5F5F5F5F5F5F5F5F5F5F5F5F5F5F5F5F5F5F5F5F5F5E2F5F5F5F5F5E2E2EFE2F5F5F5F5F5E2F5F5F5F5F5F5F5F5F5F5F5F5F5F5F5F5F5F5F5
310
F5F5F5F5F5F5F5F5F5F5F5F5F5F5F5F5F5F5F5F5F5F5F5F5F5F5F5F5F5F5F5F5F5F5F5F5F5F5F5F5F5F5F5F5F5F5F5F5F5F5F5F5F5F5F5F5F5F5F5F5F5F5F5F5F5F5F5F5F5F5F5F5F5F5F5F5F5F5F5F5F5F5F5F5F5F5F5F5F5F5F5F5F5F5F5F5F5F5F5F5F5F5F5F5F5F5F5F5F5F5F5F5F5F5F5F5F5F5F5F5F5F5F5F5F5F5F5
310
F5F5F5F5F5F5F5F5F5F5F5F5F5F5F5F5F5F5F5F5F5F5F5F5F5F5F5F5F5F5F5F5F5F5F5F5F5F5F5F5F5F5F5F5F5F5F5F5F5F5F5F5F5F5F5F5F5F5F5F5F5F5F5F5F5F5F5F5F5F5F5F5F5F5F5F5F5F5F5F5F5F5F5F5F5F5F5F5F5F5F5F5F5F5E2F5F5F5F5F5E2E2EFE2F5F5F5F5F5E2F5F5F5F5F5F5F5F5F5F5F5F5F5F5F5F5F5
310
F5F5F5F5F5F5F5F5F5F5F5F5F5F5F5F5F5F5F5F5F5F5F5F5F5F5F5F5F5F5F5F5F5F5F5F5F5F5F5F5F5F5F5F5F5F5F5F5F5F5F5F5F5F5F5F5F5F5F5F5F5F5F5F5F5F5F5F5F5F5F5F5F5F5F5F5F5F5F5F5F5F5F5F5F5F5F5F5F5F5F5F5F5F5F5F5F5F5F5F5F5F5F5F5F5F5F5F5F5F5F5F5F5F5F5F5F5F5F5F5F5F5F5F5F5F5F5
310
F5F5F5F5F5F5F5F5F5F5F5F5F5F5F5F5F5F5F5F5F5F5F5F5F5F5F5F5F5F5F5F5F5F5F5F5F5F5F5F5F5F5F5F5F5F5F5F5F5F5F5F5F5F5F5F5F5F5F5F5F5F5F5F5F5F5F5F5F5F5F5F5F5F5F5F5F5F5F5F5F5F5F5F5F5F5F5F5F5F5F5F5F5F5F5F5E2F5F5F5F5F5E2E2EFE2F5F5F5F5F5E2F5F5F5F5F5F5F5F5F5F5F5F5F5F5F5
310
F5F5F5F5F5F5F5F5F5F5F5F5F5F5F5F5F5F5F5F5F5F5F5F5F5F5F5F5F5F5F5F5F5F5F5F5F5F5F5F5F5F5F5F5F5F5F5F5F5F5F5F5F5F5F5F5F5F5F5F5F5F5F5F5F5F5F5F5F5F5F5F5F5F5F5F5F5F5F5F5F5F5F5F5F5F5F5F5F5F5F5F5F5F5F5F5F5F5F5F5F5F5F5F5F5F5F5F5F5F5F5F5F5F5F5F5F5F5F5F5F5F5F5F5F5F5F5
310
F5F5F5F5F5F5F5F5F5F5F5F5F5F5F5F5F5F5F5F5F5F5F5F5F5F5F5F5F5F5F5F5F5F5F5F5F5F5F5F5F5F5F5F5F5F5F5F5F5F5F5F5F5F5F5F5F5F5F5F5F5F5F5F5F5F5F5F5F5F5F5F5F5F5F5F5F5F5F5F5F5F5F5F5F5F5F5F5F5F5F5F5F5F5F5F5F5F5E2F5F5F5F5F5E2E2EFE2F5F5F5F5F5E2F5F5F5F5F5F5F5F5F5F5F5F5F5
310
F5F5F5F5F5F5F5F5F5F5F5F5F5F5F5F5F5F5F5F5F5F5F5F5F5F5F5F5F5F5F5F5F5F5F5F5F5F5F5F5F5F5F5F5F5F5F5F5F5F5F5F5F5F5F5F5F5F5F5F5F5F5F5F5F5F5F5F5F5F5F5F5F5F5F5F5F5F5F5F5F5F5F5F5F5F5F5F5F5F5F5F5F5F5F5F5F5F5F5F5F5F5F5F5F5F5F5F5F5F5F5F5F5F5F5F5F5F5F5F5F5F5F5F5F5F5F5
310
F5F5F5F5F5F5F5F5F5F5F5F5F5F5F5F5F5F5F5F5F5F5F5F5F5F5F5F5F5F5F5F5F5F5F5F5F5F5F5F5F5F5F5F5F5F5F5F5F5F5F5F5F5F5F5F5F5F5F5F5F5F5F5F5F5F5F5F5F5F5F5F5F5F5F5F5F5F5F5F5F5F5F5F5F5F5F5F5F5F5F5F5F5F5F5F5F5F5F5F5E2F5F5F5F5F5E2E2EFE2F5F5F5F5F5E2F5F5F5F5F5F5F5F5F5F5F5
310
F5F5F5F5F5F5F5F5F5F5F5F5F5F5F5F5F5F5F5F5F5F5F5F5F5F5F5F5F5F5F5F5F5F5F5F5F5F5F5F5F5F5F5F5F5F5F5F5F5F5F5F5F5F5F5F5F5F5F5F5F5F5F5F5F5F5F5F5F5F5F5F5F5F5F5F5F5F5F5F5F5F5F5F5F5F5F5F5F5F5F5F5F5F5F5F5F5F5F5F5F5F5F5F5F5F5F5F5F5F5F5F5F5F5F5F5F5F5F5F5F5F5F5F5F5F5F5
310
F5F5F5F5F5F5F5F5F5F5F5F5F5F5F5F5F5F5F5F5F5F5F5F5F5F5F5F5F5F5F5F5F5F5F5F5F5F5F5F5F5F5F5F5F5F5F5F5F5F5F5F5F5F5F5F5F5F5F5F5F5F5F5F5F5F5F5F5F5F5F5F5F5F5F5F5F5F5F5F5F5F5F5F5F5F5F5F5F5F5F5F5F5F5F5F5F5F5F5F5F5F5E2F5F5F5F5F5E2E2EFE2F5F5F5F5F5E2E2E2E2E2E2E2E2E2E2
310
E2E2E2E2E2E2E2E2E2E2E2E2E2E2E2E2E2E2E2E2E2E2E2E2E2E2E2E2E2E2E2E2E2E2E2E2E2E2E2E2E2E2E2E2E2E2E2E2E2E2E2E2E2E2E2E2E2E2E2E2E2E2E2E2E2E2E2E2E2E2E2E2E2E2E2E2E2E2E2E2E2E2E2E2E2E2E2E2E2E2E2E2E2E2E2E2E2E2E2E2E2E2E2E2E2E2E2E2E2E2E2E2E2E2E2E2E2E2E2E2E2E2E2E2E2E2E2
310
E2E2E2E2E2E2E2E2E2E2E2E2E2E2E2E2E2E2E2E2E2E2E2E2E2E2E2E2E2E2E2E2E2E2E2E2E2E2E2E2E2E2E2E2E2E2E2E2E2E2E2E2E2E2E2E2E2E2E2E2E2E2E2E2E2E2E2E2E2E2E2E2E2E2E2E2E2E2E2E2E2E2E2E2E2E2E2E2E2E2E2E2E2E2E2E2E2E2E2E2E2E2E2E2E2F5F5F5F5F5E2E2EFE2F5F5F5F5F5E2F5F5F5F5F5F5F5
310
F5F5F5F5F5F5F5F5F5F5F5F5F5F5F5F5F5F5F5F5F5F5F5F5F5F5F5F5F5F5F5F5F5F5F5F5F5F5F5F5F5F5F5F5F5F5F5F5F5F5F5F5F5F5F5F5F5F5F5F5F5F5F5F5F5F5F5F5F5F5F5F5F5F5F5F5F5F5F5F5F5F5F5F5F5F5F5F5F5F5F5F5F5F5F5F5F5F5F5F5F5F5F5F5F5F5F5F5F5F5F5F5F5F5F5F5F5F5F5F5F5F5F5F5F5F5F5
310
F5F5F5F5F5F5F5F5F5F5F5F5F5F5F5F5F5F5F5F5F5F5F5F5F5F5F5F5F5F5F5F5F5F5F5F5F5F5F5F5F5F5F5F5F5F5F5F5F5F5F5F5F5F5F5F5F5F5F5F5F5F5F5F5F5F5F5F5F5F5F5F5F5F5F5F5F5F5F5F5F5F5F5F5F5F5F5F5F5F5F5F5F5F5F5F5F5F5F5F5F5F5F5F5F5F5E2F5F5F5F5F5E2E2EFE2F5F5F5F5F5E2F5F5F5F5F5
310
F5F5F5F5F5F5F5F5F5F5F5F5F5F5F5F5F5F5F5F5F5F5F5F5F5F5F5F5F5F5F5F5F5F5F5F5F5F5F5F5F5F5F5F5F5F5F5F5F5F5F5F5F5F5F5F5F5F5F5F5F5F5F5F5F5F5F5F5F5F5F5F5F5F5F5F5F5F5F5F5F5F5F5F5F5F5F5F5F5F5F5F5F5F5F5F5F5F5F5F5F5F5F5F5F5F5F5F5F5F5F5F5F5F5F5F5F5F5F5F5F5F5F5F5F5F5F5
310
F5F5F5F5F5F5F5F5F5F5F5F5F5F5F5F5F5F5F5F5F5F5F5F5F5F5F5F5F5F5F5F5F5F5F5F5F5F5F5F5F5F5F5F5F5F5F5F5F5F5F5F5F5F5F5F5F5F5F5F5F5F5F5F5F5F5F5F5F5F5F5F5F5F5F5F5F5F5F5F5F5F5F5F5F5F5F5F5F5F5F5F5F5F5F5F5F5F5F5F5F5F5F5F5F5F5F5F5E2F5F5F5F5F5E2E2EFE2F5F5F5F5F5E2F5F5F5
310
F5F5F5F5F5F5F5F5F5F5F5F5F5F5F5F5F5F5F5F5F5F5F5F5F5F5F5F5F5F5F5F5F5F5F5F5F5F5F5F5F5F5F5F5F5F5F5F5F5F5F5F5F5F5F5F5F5F5F5F5F5F5F5F5F5F5F5F5F5F5F5F5F5F5F5F5F5F5F5F5F5F5F5F5F5F5F5F5F5F5F5F5F5F5F5F5F5F5F5F5F5F5F5F5F5F5F5F5F5F5F5F5F5F5F5F5F5F5F5F5F5F5F5F5F5F5F5
310
F5F5F5F5F5F5F5F5F5F5F5F5F5F5F5F5F5F5F5F5F5F5F5F5F5F5F5F5F5F5F5F5F5F5F5F5F5F5F5F5F5F5F5F5F5F5F5F5F5F5F5F5F5F5F5F5F5F5F5F5F5F5F5F5F5F5F5F5F5F5F5F5F5F5F5F5F5F5F5F5F5F5F5F5F5F5F5F5F5F5F5F5F5F5F5F5F5F5F5F5F5F5F5F5F5F5F5F5F5F5E2F5F5F5F5F5E2E2EFE2F5F5F5F5F5E2F5
310
F5F5F5F5F5F5F5F5F5F5F5F5F5F5F5F5F5F5F5F5F5F5F5F5F5F5F5F5F5F5F5F5F5F5F5F5F5F5F5F5F5F5F5F5F5F5F5F5F5F5F5F5F5F5F5F5F5F5F5F5F5F5F5F5F5F5F5F5F5F5F5F5F5F5F5F5F5F5F5F5F5F5F5F5F5F5F5F5F5F5F5F5F5F5F5F5F5F5F5F5F5F5F5F5F5F5F5F5F5F5F5F5F5F5F5F5F5F5F5F5F5F5F5F5F5F5F5
310
F5F5F5F5F5F5F5F5F5F5F5F5F5F5F5F5F5F5F5F5F5F5F5F5F5F5F5F5F5F5F5F5F5F5F5F5F5F5F5F5F5F5F5F5F5F5F5F5F5F5F5F5F5F5F5F5F5F5F5F5F5F5F5F5F5F5F5F5F5F5F5F5F5F5F5F5F5F5F5F5F5F5F5F5F5F5F5F5F5F5F5F5F5F5F5F5F5F5F5F5F5F5F5F5F5F5F5F5F5F5F5F5E2F5F5F5F5F5E2E2EFE2F5F5F5F5F5
310
E2F5F5F5F5F5F5F5F5F5F5F5F5F5F5F5F5F5F5F5F5F5F5F5F5F5F5F5F5F5F5F5F5F5F5F5F5F5F5F5F5F5F5F5F5F5F5F5F5F5F5F5F5F5F5F5F5F5F5F5F5F5F5F5F5F5F5F5F5F5F5F5F5F5F5F5F5F5F5F5F5F5F5F5F5F5F5F5F5F5F5F5F5F5F5F5F5F5F5F5F5F5F5F5F5F5F5F5F5F5F5F5F5F5F5F5F5F5F5F5F5F5F5F5F5F5F5
310
F5F5F5F5F5F5F5F5F5F5F5F5F5F5F5F5F5F5F5F5F5F5F5F5F5F5F5F5F5F5F5F5F5F5F5F5F5F5F5F5F5F5F5F5F5F5F5F5F5F5F5F5F5F5F5F5F5F5F5F5F5F5F5F5F5F5F5F5F5F5F5F5F5F5F5F5F5F5F5F5F5F5F5F5F5F5F5F5F5F5F5F5F5F5F5F5F5F5F5F5F5F5F5F5F5F5F5F5F5F5F5F5F5F5E2F5F5F5F5F5E2E2EFE2F5F5F5
310
F5F5E2F5F5F5F5F5F5F5F5F5F5F5F5F5F5F5F5F5F5F5F5F5F5F5F5F5F5F5F5F5F5F5F5F5F5F5F5F5F5F5F5F5F5F5F5F5F5F5F5F5F5F5F5F5F5F5F5F5F5F5F5F5F5F5F5F5F5F5F5F5F5F5F5F5F5F5F5F5F5F5F5F5F5F5F5F5F5F5F5F5F5F5F5F5F5F5F5F5F5F5F5F5F5F5F5F5F5F5F5F5F5F5F5F5F5F5F5F5F5F5F5F5F5F5F5
310
F5F5F5F5F5F5F5F5F5F5F5F5F5F5F5F5F5F5F5F5F5F5F5F5F5F5F5F5F5F5F5F5F5F5F5F5F5F5F5F5F5F5F5F5F5F5F5F5F5F5F5F5F5F5F5F5F5F5F5F5F5F5F5F5F5F5F5F5F5F5F5F5F5F5F5F5F5F5F5F5F5F5F5F5F5F5F5F5F5F5F5F5F5F5F5F5F5F5F5F5F5F5F5F5F5F5F5F5F5F5F5F5F5F5F5F5E2F5F5F5F5F5E2E2EFE2F5
310
F5F5F5F5E2F5F5F5F5F5F5F5F5F5F5F5F5F5F5F5F5F5F5F5F5F5F5F5F5F5F5F5F5F5F5F5F5F5F5F5F5F5F5F5F5F5F5F5F5F5F5F5F5F5F5F5F5F5F5F5F5F5F5F5F5F5F5F5F5F5F5F5F5F5F5F5F5F5F5F5F5F5F5F5F5F5F5F5F5F5F5F5F5F5F5F5F5F5F5F5F5F5F5F5F5F5F5F5F5F5F5F5F5F5F5F5F5F5F5F5F5F5F5F5F5F5F5
310
F5F5F5F5F5F5F5F5F5F5F5F5F5F5F5F5F5F5F5F5F5F5F5F5F5F5F5F5F5F5F5F5F5F5F5F5F5F5F5F5F5F5F5F5F5F5F5F5F5F5F5F5F5F5F5F5F5F5F5F5F5F5F5F5F5F5F5F5F5F5F5F5F5F5F5F5F5F5F5F5F5F5F5F5F5F5F5F5F5F5F5F5F5F5F5F5F5F5F5F5F5F5F5F5F5F5F5F5F5F5F5F5F5F5F5F5F5F5E2F5F5F5F5F5E2E2EF
310
E2F5F5F5F5F5E2F5F5F5F5F5F5F5F5F5F5F5F5F5F5F5F5F5F5F5F5F5F5F5F5F5F5F5F5F5F5F5F5F5F5F5F5F5F5F5F5F5F5F5F5F5F5F5F5F5F5F5F5F5F5F5F5F5F5F5F5F5F5F5F5F5F5F5F5F5F5F5F5F5F5F5F5F5F5F5F5F5F5F5F5F5F5F5F5F5F5F5F5F5F5F5F5F5F5F5F5F5F5F5F5F5F5F5F5F5F5F5F5F5F5F5F5F5F5F5F5
310
F5F5F5F5F5F5F5F5F5F5F5F5F5F5F5F5F5F5F5F5F5F5F5F5F5F5F5F5F5F5F5F5F5F5F5F5F5F5F5F5F5F5F5F5F5F5F5F5F5F5F5F5F5F5F5F5F5F5F5F5F5F5F5F5F5F5F5F5F5F5F5F5F5F5F5F5F5F5F5F5F5F5F5F5F5F5F5F5F5F5F5F5F5F5F5F5F5F5F5F5F5F5F5F5F5F5F5F5F5F5F5F5F5F5F5F5F5F5F5F5E2F5F5F5F5F5E2
310
E2EFE2F5F5F5F5F5E2F5F5F5F5F5F5F5F5F5F5F5F5F5F5F5F5F5F5F5F5F5F5F5F5F5F5F5F5F5F5F5F5F5F5F5F5F5F5F5F5F5F5F5F5F5F5F5F5F5F5F5F5F5F5F5F5F5F5F5F5F5F5F5F5F5F5F5F5F5F5F5F5F5F5F5F5F5F5F5F5F5F5F5F5F5F5F5F5F5F5F5F5F5F5F5F5F5F5F5F5F5F5F5F5F5F5F5F5F5F5F5F5F5F5F5F5F5F5
310
F5F5F5F5F5F5F5F5F5F5F5F5F5F5F5F5F5F5F5F5F5F5F5F5F5F5F5F5F5F5F5F5F5F5F5F5F5F5F5F5F5F5F5F5F5F5F5F5F5F5F5F5F5F5F5F5F5F5F5F5F5F5F5F5F5F5F5F5F5F5F5F5F5F5F5F5F5F5F5F5F5F5F5F5F5F5F5F5F5F5F5F5F5F5F5F5F5F5F5F5F5F5F5F5F5F5F5F5F5F5F5F5F5F5F5F5F5F5F5F5F5F5E2F5F5F5F5
310
F5E2E2EFE2F5F5F5F5F5E2F5F5F5F5F5F5F5F5F5F5F5F5F5F5F5F5F5F5F5F5F5F5F5F5F5F5F5F5F5F5F5F5F5F5F5F5F5F5F5F5F5F5F5F5F5F5F5F5F5F5F5F5F5F5F5F5F5F5F5F5F5F5F5F5F5F5F5F5F5F5F5F5F5F5F5F5F5F5F5F5F5F5F5F5F5F5F5F5F5F5F5F5F5F5F5F5F5F5F5F5F5F5F5F5F5F5F5F5F5F5F5F5F5F5F5F5
310
F5F5F5F5F5F5F5F5F5F5F5F5F5F5F5F5F5F5F5F5F5F5F5F5F5F5F5F5F5F5F5F5F5F5F5F5F5F5F5F5F5F5F5F5F5F5F5F5F5F5F5F5F5F5F5F5F5F5F5F5F5F5F5F5F5F5F5F5F5F5F5F5F5F5F5F5F5F5F5F5F5F5F5F5F5F5F5F5F5F5F5F5F5F5F5F5F5F5F5F5F5F5F5F5F5F5F5F5F5F5F5F5F5F5F5F5F5F5F5F5F5F5F5F5E2F5F5
310
F5F5F5E2E2EFE2F5F5F5F5F5E2F5F5F5F5F5F5F5F5F5F5F5F5F5F5F5F5F5F5F5F5F5F5F5F5F5F5F5F5F5F5F5F5F5F5F5F5F5F5F5F5F5F5F5F5F5F5F5F5F5F5F5F5F5F5F5F5F5F5F5F5F5F5F5F5F5F5F5F5F5F5F5F5F5F5F5F5F5F5F5F5F5F5F5F5F5F5F5F5F5F5F5F5F5F5F5F5F5F5F5F5F5F5F5F5F5F5F5F5F5F5F5F5F5F5
310
F5F5F5F5F5F5F5F5F5F5F5F5F5F5F5F5F5F5F5F5F5F5F5F5F5F5F5F5F5F5F5F5F5F5F5F5F5F5F5F5F5F5F5F5F5F5F5F5F5F5F5F5F5F5F5F5F5F5F5F5F5F5F5F5F5F5F5F5F5F5F5F5F5F5F5F5F5F5F5F5F5F5F5F5F5F5F5F5F5F5F5F5F5F5F5F5F5F5F5F5F5F5F5F5F5F5F5F5F5F5F5F5F5F5F5F5F5F5F5F5F5F5F5F5F5F5E2
310
F5F5F5F5F5E2E2EFE2F5F5F5F5F5E2F5F5F5F5F5F5F5F5F5F5F5F5F5F5F5F5F5F5F5F5F5F5F5F5F5F5F5F5F5F5F5F5F5F5F5F5F5F5F5F5F5F5F5F5F5F5F5F5F5F5F5F5F5F5F5F5F5F5F5F5F5F5F5F5F5F5F5F5F5F5F5F5F5F5F5F5F5F5F5F5F5F5F5F5F5F5F5F5F5F5F5F5F5F5F5F5F5F5F5F5F5F5F5F5F5F5F5F5F5F5F5F5
310
F5F5F5F5F5F5F5F5F5F5F5F5F5F5F5F5F5F5F5F5F5F5F5F5F5F5F5F5F5F5F5F5F5F5F5F5F5F5F5F5F5F5F5F5F5F5F5F5F5F5F5F5F5F5F5F5F5F5F5F5F5F5F5F5F5F5F5F5F5F5F5F5F5F5F5F5F5F5F5F5F5F5F5F5F5F5F5F5F5F5F5F5F5F5F5F5F5F5F5F5F5F5F5F5F5F5F5F5F5F5F5F5F5F5F5F5F5F5F5F5F5F5F5F5F5F5F5
310
F5E2F5F5F5F5F5E2E2EFE2F5F5F5F5F5E2F5F5F5F5F5F5F5F5F5F5F5F5F5F5F5F5F5F5F5F5F5F5F5F5F5F5F5F5F5F5F5F5F5F5F5F5F5F5F5F5F5F5F5F5F5F5F5F5F5F5F5F5F5F5F5F5F5F5F5F5F5F5F5F5F5F5F5F5F5F5F5F5F5F5F5F5F5F5F5F5F5F5F5F5F5F5F5F5F5F5F5F5F5F5F5F5F5F5F5F5F5F5F5F5F5F5F5F5F5F5
310
F5F5F5F5F5F5F5F5F5F5F5F5F5F5F5F5F5F5F5F5F5F5F5F5F5F5F5F5F5F5F5F5F5F5F5F5F5F5F5F5F5F5F5F5F5F5F5F5F5F5F5F5F5F5F5F5F5F5F5F5F5F5F5F5F5F5F5F5F5F5F5F5F5F5F5F5F5F5F5F5F5F5F5F5F5F5F5F5F5F5F5F5F5F5F5F5F5F5F5F5F5F5F5F5F5F5F5F5F5F5F5F5F5F5F5F5F5F5F5F5F5F5F5F5F5F5F5
310
F5F5F5E2F5F5F5F5F5E2E2EFE2F5F5F5F5F5E2F5F5F5F5F5F5F5F5F5F5F5F5F5F5F5F5F5F5F5F5F5F5F5F5F5F5F5F5F5F5F5F5F5F5F5F5F5F5F5F5F5F5F5F5F5F5F5F5F5F5F5F5F5F5F5F5F5F5F5F5F5F5F5F5F5F5F5F5F5F5F5F5F5F5F5F5F5F5F5F5F5F5F5F5F5F5F5F5F5F5F5F5F5F5F5F5F5F5F5F5F5F5F5F5F5F5F5F5
310
F5F5F5F5F5F5F5F5F5F5F5F5F5F5F5F5F5F5F5F5F5F5F5F5F5F5F5F5F5F5F5F5F5F5F5F5F5F5F5F5F5F5F5F5F5F5F5F5F5F5F5F5F5F5F5F5F5F5F5F5F5F5F5F5F5F5F5F5F5F5F5F5F5F5F5F5F5F5F5F5F5F5F5F5F5F5F5F5F5F5F5F5F5F5F5F5F5F5F5F5F5F5F5F5F5F5F5F5F5F5F5F5F5F5F5F5F5F5F5F5F5F5F5F5F5F5F5
310
F5F5F5F5F5E2F5F5F5F5F5E2E2EFE2F5F5F5F5F5E2F5F5F5F5F5F5F5F5F5F5F5F5F5F5F5F5F5F5F5F5F5F5F5F5F5F5F5F5F5F5F5F5F5F5F5F5F5F5F5F5F5F5F5F5F5F5F5F5F5F5F5F5F5F5F5F5F5F5F5F5F5F5F5F5F5F5F5F5F5F5F5F5F5F5F5F5F5F5F5F5F5F5F5F5F5F5F5F5F5F5F5F5F5F5F5F5F5F5F5F5F5F5F5F5F5F5
310
F5F5F5F5F5F5F5F5F5F5F5F5F5F5F5F5F5F5F5F5F5F5F5F5F5F5F5F5F5F5F5F5F5F5F5F5F5F5F5F5F5F5F5F5F5F5F5F5F5F5F5F5F5F5F5F5F5F5F5F5F5F5F5F5F5F5F5F5F5F5F5F5F5F5F5F5F5F5F5F5F5F5F5F5F5F5F5F5F5F5F5F5F5F5F5F5F5F5F5F5F5F5F5F5F5F5F5F5F5F5F5F5F5F5F5F5F5F5F5F5F5F5F5F5F5F5F5
310
F5F5F5F5F5F5F5E2F5F5F5F5F5E2E2EFE2F5F5F5F5F5F5F5F5F5F5F5F5F5F5F5F5F5F5F5F5F5F5F5F5F5F5F5F5F5F5F5F5F5F5F5F5F5F5F5F5F5F5F5F5F5F5F5F5F5F5F5F5F5F5F5F5F5F5F5F5F5F5F5F5F5F5F5F5F5F5F5F5F5F5F5F5F5F5F5F5F5F5F5F5F5F5F5F5F5F5F5F5F5F5F5F5F5F5F5F5F5F5F5F5F5F5F5F5F5F5
310
F5F5F5F5F5F5F5F5F5F5F5F5F5F5F5F5F5F5F5F5F5F5F5F5F5F5F5F5F5F5F5F5F5F5F5F5F5F5F5F5F5F5F5F5F5F5F5F5F5F5F5F5F5F5F5F5F5F5F5F5F5F5F5F5F5F5F5F5F5F5F5F5F5F5F5F5F5F5F5F5F5F5F5F5F5F5F5F5F5F5F5F5F5F5F5F5F5F5F5F5F5F5F5F5F5F5F5F5F5F5F5F5F5F5F5F5F5F5F5F5F5F5F5F5F5F5F5
310
F5F5F5F5F5F5F5F5F5F5F5F5F5F5F5E2E2EFE2F5F5F5F5F5F5F5F5F5F5F5F5F5F5F5F5F5F5F5F5F5F5F5F5F5F5F5F5F5F5F5F5F5F5F5F5F5F5F5F5F5F5F5F5F5F5F5F5F5F5F5F5F5F5F5F5F5F5F5F5F5F5F5F5F5F5F5F5F5F5F5F5F5F5F5F5F5F5F5F5F5F5F5F5F5F5F5F5F5F5F5F5F5F5F5F5F5F5F5F5F5F5F5F5F5F5F5F5
310
F5F5F5F5F5F5F5F5F5F5F5F5F5F5F5F5F5F5F5F5F5F5F5F5F5F5F5F5F5F5F5F5F5F5F5F5F5F5F5F5F5F5F5F5F5F5F5F5F5F5F5F5F5F5F5F5F5F5F5F5F5F5F5F5F5F5F5F5F5F5F5F5F5F5F5F5F5F5F5F5F5F5F5F5F5F5F5F5F5F5F5F5F5F5F5F5F5F5F5F5F5F5F5F5F5F5F5F5F5F5F5F5F5F5F5F5F5F5F5F5F5F5F5F5F5F5F5
310
F5F5F5F5F5F5F5F5F5F5F5F5F5F5F5F5F5E2E2EFE2F5F5F5F5F5F5F5F5F5F5F5F5F5F5F5F5F5F5F5F5F5F5F5F5F5F5F5F5F5F5F5F5F5F5F5F5F5F5F5F5F5F5F5F5F5F5F5F5F5F5F5F5F5F5F5F5F5F5F5F5F5F5F5F5F5F5F5F5F5F5F5F5F5F5F5F5F5F5F5F5F5F5F5F5F5F5F5F5F5F5F5F5F5F5F5F5F5F5F5F5F5F5F5F5F5F5
310
F5F5F5F5F5F5F5F5F5F5F5F5F5F5F5F5F5F5F5F5F5F5F5F5F5F5F5F5F5F5F5F5F5F5F5F5F5F5F5F5F5F5F5F5F5F5F5F5F5F5F5F5F5F5F5F5F5F5F5F5F5F5F5F5F5F5F5F5F5F5F5F5F5F5F5F5F5F5F5F5F5F5F5F5F5F5F5F5F5F5F5F5F5F5F5F5F5F5F5F5F5F5F5F5F5F5F5F5F5F5F5F5F5F5F5F5F5F5F5F5F5F5F5F5F5F5F5
310
F5F5F5F5F5F5F5F5F5F5F5F5F5F5F5F5F5F5F5E2E2EFE2F5F5F5F5F5F5F5F5F5F5F5F5F5F5F5F5F5F5F5F5F5F5F5F5F5F5F5F5F5F5F5F5F5F5F5F5F5F5F5F5F5F5F5F5F5F5F5F5F5F5F5F5F5F5F5F5F5F5F5F5F5F5F5F5F5F5F5F5F5F5F5F5F5F5F5F5F5F5F5F5F5F5F5F5F5F5F5F5F5F5F5F5F5F5F5F5F5F5F5F5F5F5F5F5
310
F5F5F5F5F5F5F5F5F5F5F5F5F5F5F5F5F5F5F5F5F5F5F5F5F5F5F5F5F5F5F5F5F5F5F5F5F5F5F5F5F5F5F5F5F5F5F5F5F5F5F5F5F5F5F5F5F5F5F5F5F5F5F5F5F5F5F5F5F5F5F5F5F5F5F5F5F5F5F5F5F5F5F5F5F5F5F5F5F5F5F5F5F5F5F5F5F5F5F5F5F5F5F5F5F5F5F5F5F5F5F5F5F5F5F5F5F5F5F5F5F5F5F5F5F5F5F5
310
F5F5F5F5F5F5F5F5F5F5F5F5F5F5F5F5F5F5F5F5F5E2E2EFE2F5F5F5F5F5F5F5F5F5F5F5F5F5F5F5F5F5F5F5F5F5F5F5F5F5F5F5F5F5F5F5F5F5F5F5F5F5F5F5F5F5F5F5F5F5F5F5F5F5F5F5F5F5F5F5F5F5F5F5F5F5F5F5F5F5F5F5F5F5F5F5F5F5F5F5F5F5F5F5F5F5F5F5F5F5F5F5F5F5F5F5F5F5F5F5F5F5F5F5F5F5F5
310
F5F5F5F5F5F5F5F5F5F5F5F5F5F5F5F5F5F5F5F5F5F5F5F5F5F5F5F5F5F5F5F5F5F5F5F5F5F5F5F5F5F5F5F5F5F5F5F5F5F5F5F5F5F5F5F5F5F5F5F5F5F5F5F5F5F5F5F5F5F5F5F5F5F5F5F5F5F5F5F5F5F5F5F5F5F5F5F5F5F5F5F5F5F5F5F5F5F5F5F5F5F5F5F5F5F5F5F5F5F5F5F5F5F5F5F5F5F5F5F5F5F5F5F5F5F5F5
310
F5F5F5F5F5F5F5F5F5F5F5F5F5F5F5F5F5F5F5F5F5F5F5E2E2EFE2F5F5F5F5F5F5F5F5F5F5F5F5F5F5F5F5F5F5F5F5F5F5F5F5F5F5F5F5F5F5F5F5F5F5F5F5F5F5F5F5F5F5F5F5F5F5F5F5F5F5F5F5F5F5F5F5F5F5F5F5F5F5F5F5F5F5F5F5F5F5F5F5F5F5F5F5F5F5F5F5F5F5F5F5F5F5F5F5F5F5F5F5F5F5F5F5F5F5F5F5
310
F5F5F5F5F5F5F5F5F5F5F5F5F5F5F5F5F5F5F5F5F5F5F5F5F5F5F5F5F5F5F5F5F5F5F5F5F5F5F5F5F5F5F5F5F5F5F5F5F5F5F5F5F5F5F5F5F5F5F5F5F5F5F5F5F5F5F5F5F5F5F5F5F5F5F5F5F5F5F5F5F5F5F5F5F5F5F5F5F5F5F5F5F5F5F5F5F5F5F5F5F5F5F5F5F5F5F5F5F5F5F5F5F5F5F5F5F5F5F5F5F5F5F5F5F5F5F5
310
F5F5F5F5F5F5F5F5F5F5F5F5F5F5F5F5F5F5F5F5F5F5F5F5F5E2E2EFE2F5F5F5F5F5F5F5F5F5F5F5F5F5F5F5F5F5F5F5F5F5F5F5F5F5F5F5F5F5F5F5F5F5F5F5F5F5F5F5F5F5F5F5F5F5F5F5F5F5F5F5F5F5F5F5F5F5F5F5F5F5F5F5F5F5F5F5F5F5F5F5F5F5F5F5F5F5F5F5F5F5F5F5F5F5F5F5F5F5F5F5F5F5F5F5F5F5F5
310
F5F5F5F5F5F5F5F5F5F5F5F5F5F5F5F5F5F5F5F5F5F5F5F5F5F5F5F5F5F5F5F5F5F5F5F5F5F5F5F5F5F5F5F5F5F5F5F5F5F5F5F5F5F5F5F5F5F5F5F5F5F5F5F5F5F5F5F5F5F5F5F5F5F5F5F5F5F5F5F5F5F5F5F5F5F5F5F5F5F5F5F5F5F5F5F5F5F5F5F5F5F5F5F5F5F5F5F5F5F5F5F5F5F5F5F5F5F5F5F5F5F5F5F5F5F5F5
310
F5F5F5F5F5F5F5F5F5F5F5F5F5F5F5F5F5F5F5F5F5F5F5F5F5F5F5E2E2EFE2F5F5F5F5F5F5F5F5F5F5F5F5F5F5F5F5F5F5F5F5F5F5F5F5F5F5F5F5F5F5F5F5F5F5F5F5F5F5F5F5F5F5F5F5F5F5F5F5F5F5F5F5F5F5F5F5F5F5F5F5F5F5F5F5F5F5F5F5F5F5F5F5F5F5F5F5F5F5F5F5F5F5F5F5F5F5F5F5F5F5F5F5F5F5F5F5
310
F5F5F5F5F5F5F5F5F5F5F5F5F5F5F5F5F5F5F5F5F5F5F5F5F5F5F5F5F5F5F5F5F5F5F5F5F5F5F5F5F5F5F5F5F5F5F5F5F5F5F5F5F5F5F5F5F5F5F5F5F5F5F5F5F5F5F5F5F5F5F5F5F5F5F5F5F5F5F5F5F5F5F5F5F5F5F5F5F5F5F5F5F5F5F5F5F5F5F5F5F5F5F5F5F5F5F5F5F5F5F5F5F5F5F5F5F5F5F5F5F5F5F5F5F5F5F5
310
F5F5F5F5F5F5F5F5F5F5F5F5F5F5F5F5F5F5F5F5F5F5F5F5F5F5F5F5F5E2E2EFE2F5F5F5F5F5F5F5F5F5F5F5F5F5F5F5F5F5F5F5F5F5F5F5F5F5F5F5F5F5F5F5F5F5F5F5F5F5F5F5F5F5F5F5F5F5F5F5F5F5F5F5F5F5F5F5F5F5F5F5F5F5F5F5F5F5F5F5F5F5F5F5F5F5F5F5F5F5F5F5F5F5F5F5F5F5F5F5F5F5F5F5F5F5F5
310
F5F5F5F5F5F5F5F5F5F5F5F5F5F5F5F5F5F5F5F5F5F5F5F5F5F5F5F5F5F5F5F5F5F5F5F5F5F5F5F5F5F5F5F5F5F5F5F5F5F5F5F5F5F5F5F5F5F5F5F5F5F5F5F5F5F5F5F5F5F5F5F5F5F5F5F5F5F5F5F5F5F5F5F5F5F5F5F5F5F5F5F5F5F5F5F5F5F5F5F5F5F5F5F5F5F5F5F5F5F5F5F5F5F5F5F5F5F5F5F5F5F5F5F5F5F5F5
310
F5F5F5F5F5F5F5F5F5F5F5F5F5F5F5F5F5F5F5F5F5F5F5F5F5F5F5F5F5F5F5E2E2EFE2F5F5F5F5F5E2F5F5F5F5F5F5F5F5F5F5F5F5F5F5F5F5F5F5F5F5F5F5F5F5F5F5F5F5F5F5F5F5F5F5F5F5F5F5F5F5F5F5F5F5F5F5F5F5F5F5F5F5F5F5F5F5F5F5F5F5F5F5F5F5F5F5F5F5F5F5F5F5F5F5F5F5F5F5F5F5F5F5F5F5F5F5
310
F5F5F5F5F5F5F5F5F5F5F5F5F5F5F5F5F5F5F5F5F5F5F5F5F5F5F5F5F5F5F5F5F5F5F5F5F5F5F5F5F5F5F5F5F5F5F5F5F5F5F5F5F5F5F5F5F5F5F5F5F5F5F5F5F5F5F5F5F5F5F5F5F5F5F5F5F5F5F5F5F5F5F5F5F5F5F5F5F5F5F5F5F5F5F5F5F5F5F5F5F5F5F5F5F5F5F5F5F5F5F5F5F5F5F5F5F5F5F5F5F5F5F5F5F5F5F5
310
F5F5F5F5F5F5F5F5F5F5F5F5F5F5F5F5F5F5F5F5F5F5F5F5F5F5F5E2F5F5F5F5F5E2E2EFE2F5F5F5F5F5E2F5F5F5F5F5F5F5F5F5F5F5F5F5F5F5F5F5F5F5F5F5F5F5F5F5F5F5F5F5F5F5F5F5F5F5F5F5F5F5F5F5F5F5F5F5F5F5F5F5F5F5F5F5F5F5F5F5F5F5F5F5F5F5F5F5F5F5F5F5F5F5F5F5F5F5F5F5F5F5F5F5F5F5F5
310
F5F5F5F5F5F5F5F5F5F5F5F5F5F5F5F5F5F5F5F5F5F5F5F5F5F5F5F5F5F5F5F5F5F5F5F5F5F5F5F5F5F5F5F5F5F5F5F5F5F5F5F5F5F5F5F5F5F5F5F5F5F5F5F5F5F5F5F5F5F5F5F5F5F5F5F5F5F5F5F5F5F5F5F5F5F5F5F5F5F5F5F5F5F5F5F5F5F5F5F5F5F5F5F5F5F5F5F5F5F5F5F5F5F5F5F5F5F5F5F5F5F5F5F5F5F5F5
310
F5F5F5F5F5F5F5F5F5F5F5F5F5F5F5F5F5F5F5F5F5F5F5F5F5F5F5F5F5E2F5F5F5F5F5E2E2EFE2F5F5F5F5F5E2F5F5F5F5F5F5F5F5F5F5F5F5F5F5F5F5F5F5F5F5F5F5F5F5F5F5F5F5F5F5F5F5F5F5F5F5F5F5F5F5F5F5F5F5F5F5F5F5F5F5F5F5F5F5F5F5F5F5F5F5F5F5F5F5F5F5F5F5F5F5F5F5F5F5F5F5F5F5F5F5F5F5
310
F5F5F5F5F5F5F5F5F5F5F5F5F5F5F5F5F5F5F5F5F5F5F5F5F5F5F5F5F5F5F5F5F5F5F5F5F5F5F5F5F5F5F5F5F5F5F5F5F5F5F5F5F5F5F5F5F5F5F5F5F5F5F5F5F5F5F5F5F5F5F5F5F5F5F5F5F5F5F5F5F5F5F5F5F5F5F5F5F5F5F5F5F5F5F5F5F5F5F5F5F5F5F5F5F5F5F5F5F5F5F5F5F5F5F5F5F5F5F5F5F5F5F5F5F5F5F5
310
F5F5F5F5F5F5F5F5F5F5F5F5F5F5F5F5F5F5F5F5F5F5F5F5F5F5F5F5F5F5F5E2F5F5F5F5F5E2E2EFE2F5F5F5F5F5E2F5F5F5F5F5F5F5F5F5F5F5F5F5F5F5F5F5F5F5F5F5F5F5F5F5F5F5F5F5F5F5F5F5F5F5F5F5F5F5F5F5F5F5F5F5F5F5F5F5F5F5F5F5F5F5F5F5F5F5F5F5F5F5F5F5F5F5F5F5F5F5F5F5F5F5F5F5F5F5F5
310
F5F5F5F5F5F5F5F5F5F5F5F5F5F5F5F5F5F5F5F5F5F5F5F5F5F5F5F5F5F5F5F5F5F5F5F5F5F5F5F5F5F5F5F5F5F5F5F5F5F5F5F5F5F5F5F5F5F5F5F5F5F5F5F5F5F5F5F5F5F5F5F5F5F5F5F5F5F5F5F5F5F5F5F5F5F5F5F5F5F5F5F5F5F5F5F5F5F5F5F5F5F5F5F5F5F5F5F5F5F5F5F5F5F5F5F5F5F5F5F5F5F5F5F5F5F5F5
310
F5F5F5F5F5F5F5F5F5F5F5F5F5F5F5F5F5F5F5F5F5F5F5F5F5F5F5F5F5F5F5F5F5E2F5F5F5F5F5E2E2EFE2F5F5F5F5F5E2F5F5F5F5F5F5F5F5F5F5F5F5F5F5F5F5F5F5F5F5F5F5F5F5F5F5F5F5F5F5F5F5F5F5F5F5F5F5F5F5F5F5F5F5F5F5F5F5F5F5F5F5F5F5F5F5F5F5F5F5F5F5F5F5F5F5F5F5F5F5F5F5F5F5F5F5F5F5
310
F5F5F5F5F5F5F5F5F5F5F5F5F5F5F5F5F5F5F5F5F5F5F5F5F5F5F5F5F5F5F5F5F5F5F5F5F5F5F5F5F5F5F5F5F5F5F5F5F5F5F5F5F5F5F5F5F5F5F5F5F5F5F5F5F5F5F5F5F5F5F5F5F5F5F5F5F5F5F5F5F5F5F5F5F5F5F5F5F5F5F5F5F5F5F5F5F5F5F5F5F5F5F5F5F5F5F5F5F5F5F5F5F5F5F5F5F5F5F5F5F5F5F5F5F5F5F5
310
F5F5F5F5F5F5F5F5F5F5F5F5F5F5F5F5F5F5F5F5F5F5F5F5F5F5F5F5F5F5F5F5F5F5F5E2F5F5F5F5F5E2E2EFE2F5F5F5F5F5E2F5F5F5F5F5F5F5F5F5F5F5F5F5F5F5F5F5F5F5F5F5F5F5F5F5F5F5F5F5F5F5F5F5F5F5F5F5F5F5F5F5F5F5F5F5F5F5F5F5F5F5F5F5F5F5F5F5F5F5F5F5F5F5F5F5F5F5F5F5F5F5F5F5F5F5F5
310
F5F5F5F5F5F5F5F5F5F5F5F5F5F5F5F5F5F5F5F5F5F5F5F5F5F5F5F5F5F5F5F5F5F5F5F5F5F5F5F5F5F5F5F5F5F5F5F5F5F5F5F5F5F5F5F5F5F5F5F5F5F5F5F5F5F5F5F5F5F5F5F5F5F5F5F5F5F5F5F5F5F5F5F5F5F5F5F5F5F5F5F5F5F5F5F5F5F5F5F5F5F5F5F5F5F5F5F5F5F5F5F5F5F5F5F5F5F5F5F5F5F5F5F5F5F5F5
310
F5F5F5F5F5F5F5F5F5F5F5F5F5F5F5F5F5F5F5F5F5F5F5F5F5F5F5F5F5F5F5F5F5F5F5F5F5E2F5F5F5F5F5E2E2EFE2F5F5F5F5F5E2F5F5F5F5F5F5F5F5F5F5F5F5F5F5F5F5F5F5F5F5F5F5F5F5F5F5F5F5F5F5F5F5F5F5F5F5F5F5F5F5F5F5F5F5F5F5F5F5F5F5F5F5F5F5F5F5F5F5F5F5F5F5F5F5F5F5F5F5F5F5F5F5F5F5
310
F5F5F5F5F5F5F5F5F5F5F5F5F5F5F5F5F5F5F5F5F5F5F5F5F5F5F5F5F5F5F5F5F5F5F5F5F5F5F5F5F5F5F5F5F5F5F5F5F5F5F5F5F5F5F5F5F5F5F5F5F5F5F5F5F5F5F5F5F5F5F5F5F5F5F5F5F5F5F5F5F5F5F5F5F5F5F5F5F5F5F5F5F5F5F5F5F5F5F5F5F5F5F5F5F5F5F5F5F5F5F5F5F5F5F5F5F5F5F5F5F5F5F5F5F5F5F5
310
F5F5F5F5F5F5F5F5F5F5F5F5F5F5F5F5F5F5F5F5F5F5F5F5F5F5F5F5F5F5F5F5F5F5F5F5F5F5F5E2F5F5F5F5F5E2E2EFE2F5F5F5F5F5E2F5F5F5F5F5F5F5F5F5F5F5F5F5F5F5F5F5F5F5F5F5F5F5F5F5F5F5F5F5F5F5F5F5F5F5F5F5F5F5F5F5F5F5F5F5F5F5F5F5F5F5F5F5F5F5F5F5F5F5F5F5F5F5F5F5F5F5F5F5F5F5F5
310
F5F5F5F5F5F5F5F5F5F5F5F5F5F5F5F5F5F5F5F5F5F5F5F5F5F5F5F5F5F5F5F5F5F5F5F5F5F5F5F5F5F5F5F5F5F5F5F5F5F5F5F5F5F5F5F5F5F5F5F5F5F5F5F5F5F5F5F5F5F5F5F5F5F5F5F5F5F5F5F5F5F5F5F5F5F5F5F5F5F5F5F5F5F5F5F5F5F5F5F5F5F5F5F5F5F5F5F5F5F5F5F5F5F5F5F5F5F5F5F5F5F5F5F5F5F5F5
310
F5F5F5F5F5F5F5F5F5F5F5F5F5F5F5F5F5F5F5F5F5F5F5F5F5F5F5F5F5F5F5F5F5F5F5F5F5F5F5F5F5E2F5F5F5F5F5E2E2EFE2F5F5F5F5F5E2E2E2E2E2E2E2E2F5F5F5F5F5F5F5F5F5E2E2E2E2E2E2E2E2E2E2E2E2E2E2E2F5F5F5F5F5F5F5F5F5E2E2E2E2E2E2E2E2E2E2E2E2E2E2E2F5F5F5F5F5F5F5F5F5E2E2E2E2E2E2
310
E2E2E2E2E2E2E2E2E2E2F5F5F5F5F5F5F5F5E2E2E2E2E2E2E2E2E2E2E2E2E2E2E2E2F5F5F5F5F5F5F5F5E2E2E2E2E2E2E2E2E2E2E2E2E2E2E2E2F5F5F5F5F5F5F5F5E2E2E2E2E2E2E2E2E2E2E2E2E2E2E2E2F5F5F5F5F5F5F5F5E2E2E2E2E2E2E2E2E2E2E2E2E2E2E2E2F5F5F5F5F5F5F5F5F5E2E2E2E2E2E2E2E2E2E2E2E2
310
E2E2E2F5F5F5F5F5F5F5F5F5E2E2E2E2E2E2E2E2E2E2E2E2E2E2E2F5F5F5F5F5F5F5F5F5E2E2E2E2E2E2E2E2F5F5F5F5F5E2E2EFE2F5F5F5F5F5F5F5F5F5F5F5F5F5F5F5F5F5F5F5F5F5F5F5F5F5F5F5F5F5F5F5F5F5F5F5F5F5F5F5F5F5F5F5F5F5F5F5F5F5F5F5F5F5F5F5F5F5F5F5F5F5F5F5F5F5F5F5F5F5F5F5F5F5F5
310
F5F5F5F5F5F5F5F5F5F5F5F5F5F5F5F5F5F5F5F5F5F5F5F5F5F5F5F5F5F5F5F5F5F5F5F5F5F5F5F5F5F5F5F5F5F5F5F5F5F5F5F5F5F5F5F5F5F5F5F5F5F5F5F5F5F5F5F5F5F5F5F5F5F5F5F5F5F5F5F5F5F5F5F5F5F5F5F5F5F5F5F5F5F5F5F5F5F5F5F5F5F5F5F5F5F5F5F5F5F5F5F5F5F5F5F5F5F5F5F5F5F5F5F5F5F5F5
310
F5F5F5F5F5F5F5F5F5F5F5F5F5F5F5F5F5F5F5F5F5F5F5F5F5F5F5F5F5F5F5F5F5F5F5F5F5F5F5F5F5F5F5F5F5F5F5F5F5F5F5E2E2EFE2F5F5F5F5F5F5F5F5F5F5F5F5F5F5F5F5F5F5F5F5F5F5F5F5F5F5F5F5F5F5F5F5F5F5F5F5F5F5F5F5F5F5F5F5F5F5F5F5F5F5F5F5F5F5F5F5F5F5F5F5F5F5F5F5F5F5F5F5F5F5F5F5
310
F5F5F5F5F5F5F5F5F5F5F5F5F5F5F5F5F5F5F5F5F5F5F5F5F5F5F5F5F5F5F5F5F5F5F5F5F5F5F5F5F5F5F5F5F5F5F5F5F5F5F5F5F5F5F5F5F5F5F5F5F5F5F5F5F5F5F5F5F5F5F5F5F5F5F5F5F5F5F5F5F5F5F5F5F5F5F5F5F5F5F5F5F5F5F5F5F5F5F5F5F5F5F5F5F5F5F5F5F5F5F5F5F5F5F5F5F5F5F5F5F5F5F5F5F5F5F5
310
F5F5F5F5F5F5F5F5F5F5F5F5F5F5F5F5F5F5F5F5F5F5F5F5F5F5F5F5F5F5F5F5F5F5F5F5F5F5F5F5F5F5F5F5F5F5F5F5F5F5F5F5F5E2E2EFE2F5F5F5F5F5F5F5F5F5F5F5F5F5F5F5F5F5F5F5F5F5F5F5F5F5F5F5F5F5F5F5F5F5F5F5F5F5F5F5F5F5F5F5F5F5F5F5F5F5F5F5F5F5F5F5F5F5F5F5F5F5F5F5F5F5F5F5F5F5F5
310
F5F5F5F5F5F5F5F5F5F5F5F5F5F5F5F5F5F5F5F5F5F5F5F5F5F5F5F5F5F5F5F5F5F5F5F5F5F5F5F5F5F5F5F5F5F5F5F5F5F5F5F5F5F5F5F5F5F5F5F5F5F5F5F5F5F5F5F5F5F5F5F5F5F5F5F5F5F5F5F5F5F5F5F5F5F5F5F5F5F5F5F5F5F5F5F5F5F5F5F5F5F5F5F5F5F5F5F5F5F5F5F5F5F5F5F5F5F5F5F5F5F5F5F5F5F5F5
310
F5F5F5F5F5F5F5F5F5F5F5F5F5F5F5F5F5F5F5F5F5F5F5F5F5F5F5F5F5F5F5F5F5F5F5F5F5F5F5F5F5F5F5F5F5F5F5F5F5F5F5F5F5F5F5E2E2EFE2F5F5F5F5F5F5F5F5F5F5F5F5F5F5F5F5F5F5F5F5F5F5F5F5F5F5F5F5F5F5F5F5F5F5F5F5F5F5F5F5F5F5F5F5F5F5F5F5F5F5F5F5F5F5F5F5F5F5F5F5F5F5F5F5F5F5F5F5
310
F5F5F5F5F5F5F5F5F5F5F5F5F5F5F5F5F5F5F5F5F5F5F5F5F5F5F5F5F5F5F5F5F5F5F5F5F5F5F5F5F5F5F5F5F5F5F5F5F5F5F5F5F5F5F5F5F5F5F5F5F5F5F5F5F5F5F5F5F5F5F5F5F5F5F5F5F5F5F5F5F5F5F5F5F5F5F5F5F5F5F5F5F5F5F5F5F5F5F5F5F5F5F5F5F5F5F5F5F5F5F5F5F5F5F5F5F5F5F5F5F5F5F5F5F5F5F5
310
F5F5F5F5F5F5F5F5F5F5F5F5F5F5F5F5F5F5F5F5F5F5F5F5F5F5F5F5F5F5F5F5F5F5F5F5F5F5F5F5F5F5F5F5F5F5F5F5F5F5F5F5F5F5F5F5F5E2EFEFE2F5F5F5F5F5F5F5F5F5F5F5F5F5F5F5F5F5F5F5F5F5F5F5F5F5F5F5F5F5F5F5F5F5F5F5F5F5F5F5F5F5F5F5F5F5F5F5F5F5F5F5F5F5F5F5F5F5F5F5F5F5F5F5F5F5F5
310
F5F5F5F5F5F5F5F5F5F5F5F5F5F5F5F5F5F5F5F5F5F5F5F5F5F5F5F5F5F5F5F5F5F5F5F5F5F5F5F5F5F5F5F5F5F5F5F5F5F5F5F5F5F5F5F5F5F5F5F5F5F5F5F5F5F5F5F5F5F5F5F5F5F5F5F5F5F5F5F5F5F5F5F5F5F5F5F5F5F5F5F5F5F5F5F5F5F5F5F5F5F5F5F5F5F5F5F5F5F5F5F5F5F5F5F5F5F5F5F5F5F5F5F5F5F5F5
310
F5F5F5F5F5F5F5F5F5F5F5F5F5F5F5F5F5F5F5F5F5F5F5F5F5F5F5F5F5F5F5F5F5F5F5F5F5F5F5F5F5F5F5F5F5F5F5F5F5F5F5F5F5F5F5F5F5F5F5E2EFEFE2E2E2E2E2E2E2E2E2E2E2E2E2E2E2E2E2E2E2E2E2E2E2E2E2E2E2E2E2E2E2E2E2E2E2E2E2E2E2E2E2E2E2E2E2E2E2E2E2E2E2E2E2E2E2E2E2E2E2E2E2E2E2E2E2
310
E2E2E2E2E2E2E2E2E2E2E2E2E2E2E2E2E2E2E2E2E2E2E2E2E2E2E2E2E2E2E2E2E2E2E2E2E2E2E2E2E2E2E2E2E2E2E2E2E2E2E2E2E2E2E2E2E2E2E2E2E2E2E2E2E2E2E2E2E2E2E2E2E2E2E2E2E2E2E2E2E2E2E2E2E2E2E2E2E2E2E2E2E2E2E2E2E2E2E2E2E2E2E2E2E2E2E2E2E2E2E2E2E2E2E2E2E2E2E2E2E2E2E2E2E2E2E2
310
E2E2E2E2E2E2E2E2E2E2E2E2E2E2E2E2E2E2E2E2E2E2E2E2E2E2E2E2E2E2E2E2E2E2E2E2E2E2E2E2E2E2E2E2E2E2E2E2E2E2E2E2E2E2E2E2E2E2E2E2E2E2EF
  0
XRECORD
  5
9B4
102
{ACAD_REACTORS
330
9B3
102
}
330
9B3
100
AcDbXrecord
280
     1
102
SHADEPLOT
 70
     0
102
SHADEPLOTRESLEVEL
 70
     2
102
SHADEPLOTCUSTOMDPI
 70
   300
  0
XRECORD
  5
9B0
102
{ACAD_REACTORS
330
DA
102
}
330
DA
100
AcDbXrecord
280
     1
102
MATERIAL
148
0.0
149
0.0
149
0.0
 93
        0
 94
      127
282
     0
 72
     0
 77
     0
171
     0
175
     0
179
     0
273
     0
  0
XRECORD
  5
DC
102
{ACAD_REACTORS
330
DA
102
}
330
DA
100
AcDbXrecord
280
     1
270
     1
271
     1
  0
XRECORD
  5
DB
102
{ACAD_REACTORS
330
DA
102
}
330
DA
100
AcDbXrecord
280
     1
270
     1
271
     1
  0
XRECORD
  5
DF
102
{ACAD_REACTORS
330
DA
102
}
330
DA
100
AcDbXrecord
280
     1
270
     1
271
     1
  0
XRECORD
  5
DE
102
{ACAD_REACTORS
330
DA
102
}
330
DA
100
AcDbXrecord
280
     1
270
     1
271
     1
  0
XRECORD
  5
E0
102
{ACAD_REACTORS
330
DA
102
}
330
DA
100
AcDbXrecord
280
     1
270
     1
271
     1
  0
XRECORD
  5
DD
102
{ACAD_REACTORS
330
DA
102
}
330
DA
100
AcDbXrecord
280
     1
270
     1
271
     1
  0
XRECORD
  5
9AF
102
{ACAD_REACTORS
330
D2
102
}
330
D2
100
AcDbXrecord
280
     1
102
MATERIAL
148
0.0
149
0.0
149
0.0
 93
        0
 94
      127
282
     0
 72
     0
 77
     0
171
     0
175
     0
179
     0
273
     0
  0
XRECORD
  5
D4
102
{ACAD_REACTORS
330
D2
102
}
330
D2
100
AcDbXrecord
280
     1
270
     1
271
     1
  0
XRECORD
  5
D3
102
{ACAD_REACTORS
330
D2
102
}
330
D2
100
AcDbXrecord
280
     1
270
     1
271
     1
  0
XRECORD
  5
D7
102
{ACAD_REACTORS
330
D2
102
}
330
D2
100
AcDbXrecord
280
     1
270
     1
271
     1
  0
XRECORD
  5
D6
102
{ACAD_REACTORS
330
D2
102
}
330
D2
100
AcDbXrecord
280
     1
270
     1
271
     1
  0
XRECORD
  5
D8
102
{ACAD_REACTORS
330
D2
102
}
330
D2
100
AcDbXrecord
280
     1
270
     1
271
     1
  0
XRECORD
  5
D5
102
{ACAD_REACTORS
330
D2
102
}
330
D2
100
AcDbXrecord
280
     1
270
     1
271
     1
  0
XRECORD
  5
9B1
102
{ACAD_REACTORS
330
E2
102
}
330
E2
100
AcDbXrecord
280
     1
102
MATERIAL
148
0.0
149
0.0
149
0.0
 93
        0
 94
      127
282
     0
 72
     0
 77
     0
171
     0
175
     0
179
     0
273
     0
  0
XRECORD
  5
E4
102
{ACAD_REACTORS
330
E2
102
}
330
E2
100
AcDbXrecord
280
     1
270
     1
271
     1
  0
XRECORD
  5
E3
102
{ACAD_REACTORS
330
E2
102
}
330
E2
100
AcDbXrecord
280
     1
270
     1
271
     1
  0
XRECORD
  5
E7
102
{ACAD_REACTORS
330
E2
102
}
330
E2
100
AcDbXrecord
280
     1
270
     1
271
     1
  0
XRECORD
  5
E6
102
{ACAD_REACTORS
330
E2
102
}
330
E2
100
AcDbXrecord
280
     1
270
     1
271
     1
  0
XRECORD
  5
E8
102
{ACAD_REACTORS
330
E2
102
}
330
E2
100
AcDbXrecord
280
     1
270
     1
271
     1
  0
XRECORD
  5
E5
102
{ACAD_REACTORS
330
E2
102
}
330
E2
100
AcDbXrecord
280
     1
270
     1
271
     1
  0
CELLSTYLEMAP
  5
9A9
102
{ACAD_REACTORS
330
965
102
}
330
965
100
AcDbCellStyleMap
 90
        3
300
CELLSTYLE
  1
TABLEFORMAT_BEGIN
 90
        5
170
     1
 91
        0
 92
    32768
 62
   257
 93
        1
300
CONTENTFORMAT
  1
CONTENTFORMAT_BEGIN
 90
        0
 91
        0
 92
      512
 93
        0
300

 40
0.0
140
1.0
 94
        5
 62
     0
340
F
144
0.25
309
CONTENTFORMAT_END
171
     1
301
MARGIN
  1
CELLMARGIN_BEGIN
 40
0.06
 40
0.06
 40
0.06
 40
0.06
 40
0.18
 40
0.18
309
CELLMARGIN_END
 94
        6
 95
        1
302
GRIDFORMAT
  1
GRIDFORMAT_BEGIN
 90
        0
 91
        1
 62
     0
 92
       -2
340
0
 93
        0
 40
0.045
309
GRIDFORMAT_END
 95
        2
302
GRIDFORMAT
  1
GRIDFORMAT_BEGIN
 90
        0
 91
        1
 62
     0
 92
       -2
340
0
 93
        0
 40
0.045
309
GRIDFORMAT_END
 95
        4
302
GRIDFORMAT
  1
GRIDFORMAT_BEGIN
 90
        0
 91
        1
 62
     0
 92
       -2
340
0
 93
        0
 40
0.045
309
GRIDFORMAT_END
 95
        8
302
GRIDFORMAT
  1
GRIDFORMAT_BEGIN
 90
        0
 91
        1
 62
     0
 92
       -2
340
0
 93
        0
 40
0.045
309
GRIDFORMAT_END
 95
       16
302
GRIDFORMAT
  1
GRIDFORMAT_BEGIN
 90
        0
 91
        1
 62
     0
 92
       -2
340
0
 93
        0
 40
0.045
309
GRIDFORMAT_END
 95
       32
302
GRIDFORMAT
  1
GRIDFORMAT_BEGIN
 90
        0
 91
        1
 62
     0
 92
       -2
340
0
 93
        0
 40
0.045
309
GRIDFORMAT_END
309
TABLEFORMAT_END
  1
CELLSTYLE_BEGIN
 90
        1
 91
        1
300
_TITLE
309
CELLSTYLE_END
300
CELLSTYLE
  1
TABLEFORMAT_BEGIN
 90
        5
170
     1
 91
        0
 92
        0
 62
   257
 93
        1
300
CONTENTFORMAT
  1
CONTENTFORMAT_BEGIN
 90
        0
 91
        0
 92
      512
 93
        0
300

 40
0.0
140
1.0
 94
        5
 62
     0
340
F
144
0.18
309
CONTENTFORMAT_END
171
     1
301
MARGIN
  1
CELLMARGIN_BEGIN
 40
0.06
 40
0.06
 40
0.06
 40
0.06
 40
0.18
 40
0.18
309
CELLMARGIN_END
 94
        6
 95
        1
302
GRIDFORMAT
  1
GRIDFORMAT_BEGIN
 90
        0
 91
        1
 62
     0
 92
       -2
340
0
 93
        0
 40
0.045
309
GRIDFORMAT_END
 95
        2
302
GRIDFORMAT
  1
GRIDFORMAT_BEGIN
 90
        0
 91
        1
 62
     0
 92
       -2
340
0
 93
        0
 40
0.045
309
GRIDFORMAT_END
 95
        4
302
GRIDFORMAT
  1
GRIDFORMAT_BEGIN
 90
        0
 91
        1
 62
     0
 92
       -2
340
0
 93
        0
 40
0.045
309
GRIDFORMAT_END
 95
        8
302
GRIDFORMAT
  1
GRIDFORMAT_BEGIN
 90
        0
 91
        1
 62
     0
 92
       -2
340
0
 93
        0
 40
0.045
309
GRIDFORMAT_END
 95
       16
302
GRIDFORMAT
  1
GRIDFORMAT_BEGIN
 90
        0
 91
        1
 62
     0
 92
       -2
340
0
 93
        0
 40
0.045
309
GRIDFORMAT_END
 95
       32
302
GRIDFORMAT
  1
GRIDFORMAT_BEGIN
 90
        0
 91
        1
 62
     0
 92
       -2
340
0
 93
        0
 40
0.045
309
GRIDFORMAT_END
309
TABLEFORMAT_END
  1
CELLSTYLE_BEGIN
 90
        2
 91
        1
300
_HEADER
309
CELLSTYLE_END
300
CELLSTYLE
  1
TABLEFORMAT_BEGIN
 90
        5
170
     1
 91
        0
 92
        0
 62
   257
 93
        1
300
CONTENTFORMAT
  1
CONTENTFORMAT_BEGIN
 90
        0
 91
        0
 92
      512
 93
        0
300

 40
0.0
140
1.0
 94
        2
 62
     0
340
F
144
0.18
309
CONTENTFORMAT_END
171
     1
301
MARGIN
  1
CELLMARGIN_BEGIN
 40
0.06
 40
0.06
 40
0.06
 40
0.06
 40
0.18
 40
0.18
309
CELLMARGIN_END
 94
        6
 95
        1
302
GRIDFORMAT
  1
GRIDFORMAT_BEGIN
 90
        0
 91
        1
 62
     0
 92
       -2
340
0
 93
        0
 40
0.045
309
GRIDFORMAT_END
 95
        2
302
GRIDFORMAT
  1
GRIDFORMAT_BEGIN
 90
        0
 91
        1
 62
     0
 92
       -2
340
0
 93
        0
 40
0.045
309
GRIDFORMAT_END
 95
        4
302
GRIDFORMAT
  1
GRIDFORMAT_BEGIN
 90
        0
 91
        1
 62
     0
 92
       -2
340
0
 93
        0
 40
0.045
309
GRIDFORMAT_END
 95
        8
302
GRIDFORMAT
  1
GRIDFORMAT_BEGIN
 90
        0
 91
        1
 62
     0
 92
       -2
340
0
 93
        0
 40
0.045
309
GRIDFORMAT_END
 95
       16
302
GRIDFORMAT
  1
GRIDFORMAT_BEGIN
 90
        0
 91
        1
 62
     0
 92
       -2
340
0
 93
        0
 40
0.045
309
GRIDFORMAT_END
 95
       32
302
GRIDFORMAT
  1
GRIDFORMAT_BEGIN
 90
        0
 91
        1
 62
     0
 92
       -2
340
0
 93
        0
 40
0.045
309
GRIDFORMAT_END
309
TABLEFORMAT_END
  1
CELLSTYLE_BEGIN
 90
        3
 91
        2
300
_DATA
309
CELLSTYLE_END
  0
XRECORD
  5
9B2
102
{ACAD_REACTORS
330
965
102
}
330
965
100
AcDbXrecord
280
     1
102
ACAD_ROUNDTRIP_PRE2007_TABLESTYLE
 90
      512
 91
        0
  1

 92
      512
 93
        0
  2

 94
      512
 95
        0
  3

  0
ENDSEC
  0
EOF
